Oops, an error
Loading. Please wait.

Jacarandosa Tab

version 2
version 2

Whole song

68 views 1 this week
no commentswrite comment
1 2 3 4 5
3 more votes to show rating
add to favorites
launch autoscroll
font size
0
reset
how to read this tab
guitar tuner
×
Best way to learn
"Jacarandosa"
Autoscroll
slow
fast
+/-
esc
set tempo
stop
Capo
2nd fret
Esta tablatura es el intermedio de
De la canción 
Se toca con requinto y capo 2do traste
LA afinación seria B F# D A E B

 B:-0-0-0-0-0-0-2-1-2-3-2-3-4-3-4-5-4-5-6-5-6-7-
F#:---------------------------------------------
 D:---------------------------------------------

 B:-6-7-8-7-8-9-8-9-10-9-10-11-10-11-12-12-12-12-12-12
F#:---------------------------------------------------
 D:---------------------------------------------------

 B:-0-0-0-12-0-0-14-0-0-12-0-0-10-0-0-9-0-0-12-0-0-10-0-0
F#:------------------------------------------------------
 D:------------------------------------------------------

 B:-9-0-0-7-0-0-5-0-0-4-0-0-2-0-0-5-0-0-4-0-0-7-0-0-5-0-0
F#:------------------------------------------------------
 D:------------------------------------------------------

 B:-9-0-0-7-0-0-10-0-0-9-12-12-12-12-12-12-12-12
F#:---------------------------------------------
 D:---------------------------------------------

 B:-12-12-12-12-13-13-13-14-14-14-15-15-15-16-16-16-17-17
F#:------------------------------------------------------
 D:------------------------------------------------------

 B:-17-18-18-18-19-19-19-20-20-20-21-21-21-22-22-22-23-23
F#:------------------------------------------------------
 D:------------------------------------------------------

 B:-23-23-24-24-24-24-24-24-
F#:-------------------------
 D:-------------------------

 B:-------24-------24-------24-------24-----------
F#:-----------------------------------------------
 D:-----------------------------------------------
 A:-----------------------------------------------
 E:-18-18----18-18----18-18----18-18--------------

 B:-------24-------24-------24-------24-----------
F#:-----------------------------------------------
 D:-----------------------------------------------
 A:-----------------------------------------------
 E:-18-18----18-18----18-18----18-18--------------

 B:-24-24-24-23-23-22-22-21-20-19-18-17-16-15-14-13-12
F#:-----------------------------------------------
 D:-24-24-24-23-23-22-22-21-20-19-18-17-16-15-14-13-12
 A:-----------------------------------------------
 E:-22-22-22-21-21-20-20-19-18-17-16-15-14-13-12-11-10
 
 B:-12-12-12--12
F#:-------------
 D:-12-12-12--12
 A:-------------
 E:-10-10-10--10

Después de esto vuelve otra vez 
La introducción que ya esta en atame 
Para cualquier duda aclaraciones?etc
jor_g3@
Suggest correction
Give kudos to tab author, rate the tab!
1 2 3 4 5
comments
print report bad tab
guest
You may want to rate the tab now too:
select rating
Wanna post a correction for this tab? Suggest correction