Oops, an error
Loading. Please wait.

Locura Tab

83 views 1 this week
no commentswrite comment
1 2 3 4 5
3 more votes to show rating
add to favorites
launch autoscroll
font size
0
reset
how to read this tab
guitar tuner
Autoscroll
slow
fast
+/-
esc
set tempo
stop
Help us to improve Ultimate-Guitar.com Take our survey!
×
Esta trancripcion se la dedico a la persona que mas quiero en mi vida por ella es que toca la guitarra
y el requinto ella es mi adoración.
Este es el acompañamiento de la canción en inicio, pero este lo toca el requinto, en caso de no tener
uno a la mano pueden ponerle un capo en el quinto traste de la guitarra.

A ---------------0--2--5?2/4---------9--12--9--12--9------9-------------0-------0----------------
E --------0--2---------------5------------------------10-----10--9--8-----8-------0--------------
C -----2-----------------------6--------------------------------------------6--------2--1--0-----
G -----------------------------------------------------------------------------------------------
D -----------------------------------------------------------------------------------------------
A -----------------------------------------------------------------------------------------------


A --------------0--2--5--1-1/2----7--10--7--10--7-10-7-10--7----7--------------------------------
E --------0--2------------------------------------------------7----7-----------------------------
C --1--2--------------------------------------------------------------7--9--10-------------------
G -----------------------------------------------------------------------------------------------
D -----------------------------------------------------------------------------------------------
A -----------------------------------------------------------------------------------------------


A ------0--1----1/10--12--13------0-1--3--1--3--1--0---1--0--------------------------------------
E ---3--------------------------3--------------------3-------------------------------------------
C -----------------------------------------------------------------------------------------------
G -----------------------------------------------------------------------------------------------
D -----------------------------------------------------------------------------------------------
A -----------------------------------------------------------------------------------------------


A ------------0--0-------------0---0---------------------------------------------------------0----
E -----0--2----2---2-------------2---2--2---------2/5--3---------------------------------2-----2--
C --2-----------------2--2-------------------2--2--------------4-2-1-4-2-1-4-2-1-4-2-1-2---2------
G ------------------------------------------------------------------------------------------------
D ------------------------------------------------------------------------------------------------
A ------------------------------------------------------------------------------------------------


A --5--4?4/7--5-4-7-5-4-7-5-4-7-5-4-5-----------------------------------------------------------
E ----------------------------------------------------------------------------------------------
C ----------------------------------------------------------------------------------------------
G ----------------------------------------------------------------------------------------------
D ----------------------------------------------------------------------------------------------
A ----------------------------------------------------------------------------------------------

Bueno se ve un poco difícil pero con mucha practica y paciencia les aseguro que saldrá a continuación les
pongo algunos acompañamientos de la canción.


En tu cabellera se enreda, se enreda

A -----------------5--2--0-------------12?10--9--------------------------------------------------
E -------0--2--3------------0------------------------12--10--9-----------------------------------
C ---2--------------------------1----------------------------------------------------------------
G ----------------------------------0------------------------------------------------------------
D -----------------------------------------------------------------------------------------------
A -----------------------------------------------------------------------------------------------

mi corazón loco, loco,                            loco                                     (dale un jalón)

A ------------------------0--------------0---------------------------0----------------0--4?2/4/2--
E ---------------------------0-------------------------------------------2--3--2--3---------------
C ------------------------------2------------------------------1--2-------------------------------
G ---------------------------------0--2----------------2--4---------------------------------------
D ------------------------------------------------------------------------------------------------
A ------------------------------------------------------------------------------------------------

yo no fui tu dueño

A --0--5--6--7--8--9------9--10--11--12-----------------------------------------------------------
E -------------------------------------------0----------------------------------------------------
C -----------------------------------------9---6--------------------------------------------------
G -----------------------------------------------7------------------------------------------------
D ------------------------------------------------------------------------------------------------
A ------------------------------------------------------------------------------------------------

me trae la distancia

A --0--7--5--3--2---------------------------------------------------------------------------------
E --------------------5--4--3------2--5--4--3--2--------------------------------------------------
C ----------------------------------------------------4--2--1-------------------------------------
G ------------------------------------------------------------------------------------------------
D ------------------------------------------------------------------------------------------------
A ------------------------------------------------------------------------------------------------

cuando por las noches te sueño,  te sueño

A -----------------5--2--0-------------12?10--9---------------------------------------------------
E -------0--2--3------------0------------------------12--10--9------------------------------------
C ---2--------------------------1-----------------------------------------------------------------
G ----------------------------------0-------------------------------------------------------------
D ------------------------------------------------------------------------------------------------
A ------------------------------------------------------------------------------------------------


vivo aquel momento tan nuestro, tan nuestro

A ---------------0--------------------------------------------------------------------------------
E -----0--1--2-----2--1--0--3--0--------1---------------------------------------------------------
C --2--------------------------------3--2----2--1--0----------------------------------------------
G ------------------------------------------------------------------------------------------------
D ------------------------------------------------------------------------------------------------
A ------------------------------------------------------------------------------------------------

quiero recordarlo como la diadema de mi desventura

A --------------0--2--1--5--4--3--2---------------------------------------------------------------
E -----------2--------------------------5--3--2---------------------------------------------------
C -------3-----------------------------------------4--2--0----------------------------------------
G ---4-------------------------------------------------------4-----------4--3--4--5?4-------------
D ------------------------------------------------------------------------------------------------
A ------------------------------------------------------------------------------------------------


Esta es la segunda parte

cuando por las noches te sueño,  te sueño

A -----------------5--2--0-------------12?10--9---------------------------------------------------
E -------0--2--3------------0------------------------12--10--9------------------------------------
C ---2--------------------------1-----------------------------------11--9-------------------------
G ----------------------------------0-------------------------------------------------------------
D ------------------------------------------------------------------------------------------------
A ------------------------------------------------------------------------------------------------

Espero que les sirva de algo esta tablaturas mándenme un mail los atenderé con mucho gusto.
Saludos a Karla y muchos amigos.
besos a los guitarristas de Puebla y del pais.
Suggest correction
Give kudos to tab author, rate the tab!
1 2 3 4 5
comments
print report bad tab
guest
You may want to rate the tab now too:
select rating
Wanna post a correction for this tab? Suggest correction