Oops, an error
Loading. Please wait.

Mi Cruz Tab

40 views 3 this week
no commentswrite comment
1 2 3 4 5
3 more votes to show rating
add to favorites
×
Save as Personal and add changes to this tab that will be seen only by you. Learn more ›
×
You can save this tab as Personal to edit and correct it or add notes. All changes will be seen only by you. Learn more »
save as personal
new!
launch autoscroll
font size
0
reset
how to read this tab
guitar tuner
Autoscroll
slow
fast
+/-
esc
set tempo
stop
Que paso amigos del Atame aca les mando un requinto sencillo pero bonito de mi maestro 
Gilberto Puente el mejor requinto del mundo, cualquier duda o comentario escribanme a 
gusrequinto83@ y para intercambio de informacion de los tres reyes estoy a 
su disposición, su amigo Gustavo.

Este Requinto va para alguien muy especial para ti 'Migdalel' con todo mi amor, 
gracias por ser asi.

-12------------0------------------------------------------------------
------12----------0--------------------------0--1--0-----0--------------
----------12---------0--------------0--2--------------2----------------
--------------------------4--2--4-------------------------------------
----------------------------------------------------------------------
----------------------------------------------------------------------

-12------------0------------------------------------------------------
------12----------0--------------------------0--1--0-----0---------------
----------12---------0--------------0--2--------------2----------------
--------------------------4--2--4-------------------------------------
----------------------------------------------------------------------
----------------------------------------------------------------------

12--------0-------------------------------------------
---12--------0--------------------------0--------------
------12--------0-----------------0--2------------------
---------------------4--2--4--------------------------
---------------------------------------------------
------------------------------------------------------

3--2--0----------------------------------------------------
---------3--1--0-----------1--0-----------1--0---------------
-------------------1--2----------1--2-----------1--2--------
-------------------------------------------------------
------------------------------------------------------
------------------------------------------------------

8--7---------------------------------------------------
------10--8--7--------7-----------7--------------------------
----------------7--8-----8--7--8-----8--7--8------------------
-------------------------------------------------------
-------------------------------------------------------
-------------------------------------------------------

-------0---7--7--7--7--7--------------------------------------
----0-----------------------10--8--7------------------------
-0-------------------------------------9--8------------0---
---------------------------------------------10--9--7------
------------------------------------------------------
-------------------------------------------------------


-------0---7--7--7--7--7--------------------------------------
----0-----------------------10--8--7------------------------
-0-------------------------------------9--8------------0---
---------------------------------------------10--9--7------
------------------------------------------------------
-------------------------------------------------------

--0--7--5--4---------------4--5--8--5--4--2-------0--2--3----------
------------------5--7------------------------3----------
------------------------------------------------------
-------------------------------------------------------
------------------------------------------------------
-------------------------------------------------------

---7--3--2--------0--1--5--1-----------------------------
------------1--3--------------5--4--0--1--3--0--------------
---------------------------------------------------
----------------------------------------------------
----------------------------------------------------
----------------------------------------------------

Eso es todo espero les guste.
Suggest correction
Give kudos to tab author, rate the tab!
1 2 3 4 5
comments
print report bad tab
guest
Wanna post a correction for this tab? Suggest correction