Oops, an error
Loading. Please wait.

Mis Flores Negras Tab

41 views 1 this week
no commentswrite comment
1 2 3 4 5
3 more votes to show rating
add to favorites
launch autoscroll
font size
0
reset
how to read this tab
guitar tuner
Autoscroll
slow
fast
+/-
esc
set tempo
stop
Help us to improve Ultimate-Guitar.com Take our survey!
×
Roberto Ortiz
Esta melodia es un pasillo

Quisiera poder comunicar con la más certera exactitud 
el requinto que se toca en esta canción.
Mi requinto me acompaña nuevamente para incorporar esta
hermosa canción A LA colección de ATAME, y  esta es en
honor a Café*Cafe al trío al cual pertenezco como 
requintista.
Cualquier sugerencia  mi mail Robert@

Como sugerencia: toque este requinto sin usar la uña de
 carey que a mí padecer quita la movilidad valiosa de los dedos de la mano izquierda.


1------------0-----------------------------------1-------
2-----0-1--3---3-1-0-3-1-0-3-1-0-------------0------3-1--
3---2----------------------------2---------1---1---------
4--2-------------------------------3-2-2-2---------------
5--------------------------------------------------------
6--------------------------------------------------------
                                        *Cuerdas a la par      
1------------0---------------------------------------3--1-- 0
2-----0-1--3---3-1-0-3-1-0-3-1-0----------------3-0--5--3-- 1  o sea la menor para 
3---2----------------------------2------------4------------ 2  cerrar aqui
4--2-------------------------------3-5--5-5-5------------
5--------------------------------------------------------
6--------------------------------------------------------

  *cuerdiando  con el indice y medio hacia arriba

1--5-7--8---3--3---5--1--1--1--3-0--0---4-5---------------------0----5-
2--6-8------5------------3----------1-------3-1-3-1-3-1-0-1-0---1------
3---------------------------------------2---------------------------2--
4---------------------------------------2------------------------------
5----------------------------------------------------------------------
6----------------------------------------------------------------------


LA m          MIm              LAm
Oye bajo las ruinas de mis pasiones

1---------------------
2--1-1-1-0-3--1-0-----
3-----------------0---

LA7                         RE m
En el fondo de mi alma que ya no alegras

1--1---3---5---3---1---
2--3---5---6---5---3---
3----------------------
4----------------------

MIm
Entre polvo de ensueños y de ilusiones

LAm        MIm                LAm
Brotan entumesidas mis flores negras

1--8---10--8-----8--8-------
2-------------11----11-9-8----
3--------------------------10---8--10--10
4-----------------------------

REm           SOL               DO M      
Ellas son el recuerdo de aquellas horas

FA M                        MI m
Que preso en tus brazos se adormecian 

RE m                        LA m
Mientras yo suspiraba por las auroras

1----0-1-0---1----------
2----------3---3-2-0----
3--------------------2--

MI m                        LA m
de tus ojos auroras que no eran mias


       Requinto


LA m          MIm              LAm
Ellas son tus desdenes y tus reproches 

LA7                         RE m
Ocultas en mi alma que ya no alegras 

MIm
Sorpresotas negras como las noches

LAm        MIm                LAm
En los gelidos polos mis flores negras

REm           SOL               DO M
Guarda pues este triste y debil manojo

FA M                        MI m
Que te ofrecen de aquellas flores hambrias

RE m                        LA m
Guardalo nada quedan son un despojo 


MI m                        LA m
Del jardín de mis sombras... melancolia.


1----5----
2----5----
3----5----


Eso es para un final como los grandes
Cualquier duda mi mail al final que le vaya bien.
Suggest correction
Give kudos to tab author, rate the tab!
1 2 3 4 5
comments
print report bad tab
guest
You may want to rate the tab now too:
select rating
Wanna post a correction for this tab? Suggest correction