Oops, an error
Loading. Please wait.

Mujeres Divinas Tab

version 1
version 1

Whole song

196 views 9 this week
no commentswrite comment
1 2 3 4 5
3 more votes to show rating
add to favorites
launch autoscroll
font size
0
reset
how to read this tab
guitar tuner
×
Best way to learn
"Mujeres Divinas"
Autoscroll
slow
fast
+/-
esc
set tempo
stop
Esta canción es buena y se la dedico a mi madre ?MARIANA? y a mis amigas
Karla, Nathaly, Jhoana y mis compañeras de la  de la Universidad
de Cuenca.

Se toca en requinto.

A?------------7--------------------7---------1P0-----0--12------------
E--1P0-----0-----10--8--1P0-----0-----10--8-------4---------15--13----
C-------3--------------------3----------------------------------------
G---------------------------------------------------------------------
D---------------------------------------------------------------------
A---------------------------------------------------------------------

A--1P0-----0--12-----------------------------------7-----7--7P5--4--5-
E-------4---------15--13--1P0-----0--2--3--4--4H7-----7-----7P7--6--7-
C------------------------------3--------------------------------------
G---------------------------------------------------------------------
D---------------------------------------------------------------------
A---------------------------------------------------------------------

A--4--5--5P3--2--3--5--7-------------7--------------------------------
E--6--7--5P5--4--5--7--8--1P0-----0-----10--8--10--8--0-----0--7--8---
C------------------------------3-------------------------0------------
G---------------------------------------------------------------------
D---------------------------------------------------------------------
A---------------------------------------------------------------------

A--------------------------------------------------8--10--8--0-----0--
E--7--0-----0--5--7--5--0-----0--3--5--3--0-----0---------------0-----
C--------0-----------------0-----------------0------------------------
G---------------------------------------------------------------------
D---------------------------------------------------------------------
A---------------------------------------------------------------------

A--7--8--7--0-----0--5--7--5--0-----0--3--5--3--0-----------------8---
E--------------0-----------------0-----------------2--3--4--4H10------
C---------------------------------------------------------------------
G---------------------------------------------------------------------
D---------------------------------------------------------------------
A---------------------------------------------------------------------

A-----7-----5-----3-----2--0--0-----0----------------
E--8-----7-----5-----4-----------4-----0H1P0---------
C---------------------------------------------0------
G------------------------------------------------2---
D----------------------------------------------------
A----------------------------------------------------


Canción.


A--3--5--3--0-----0-----------
E--------------3-----3--2--1--
C-----------------------------
G-----------------------------

Hablando de mujeres y traiciones,

A--2P0-----
E-------1--
C----------
G----------

Se fueron consumiendo las botellas,

A--7--5--3--2-------------------------
E--8--7--5--4--4--4--4H5--4---4H5--4--
C--------------4--4--4H5--4---4H5--4--
G--9--7--5--4-------------------------

Pidieron que cantara mis canciones,

A--0-----------------
E-----0--------------
C--------0-----------
G-----------4--3--2--

Y yo cante unas dos en contra de ellas,

A--3--5--3--0-----0-----------
E--------------3-----3--2--1--
C-----------------------------
G-----------------------------

De pronto que se acerca un caballero,

A--2P0-----      A--0----------------
E-------1--      E-----3P0-----------
C----------      C----------0--------
G----------      G-------------0--2--

Su pelo ya pintaba algunas canas,


A--7--5--3--2-------------------------
E--8--7--5--4--4--4--4H5--4---4H5--4--
C--------------4--4--4H5--4---4H5--4--
G--9--7--5--4-------------------------

Me dijo le suplico compañero,

A--0-----------------
E-----0--------------
C--------0-----------
G-----------4--3--2--

Que no hable en mi presencia de las damas,

Le dije que nosotros simplemente,

A--3H5--3--------------------
E--3----3--5--3H5--3H5--3H5--
C----------4--4H4--4H4--4H4--
G----------------------------

Hablamos de lo mal que nos pagaron,

Si alguien opinaba diferente,

Seria porque jamás lo traicionaron.

Seria porque jamás lo traicionaron.


?	El segundo estribo es igual que el primero.


Segunda parte.

A--12--10--8--7---------------7-------------7--8--8--
E----------------10--8--7--8-----10--9--10-----------
C----------------------------------------------------
G----------------------------------------------------

Me dijo yo soy uno de los seres,


A--10--8--7-----------------------------------7--7--
E------------10--8--7--6--7--10--8--7--8--10--------
C---------------------------------------------------
G---------------------------------------------------

Que más ha soportado los fracasos,

A--8--7--------------------------------------------
E--------10--8--7-----------8--7--6--7--8--10--10--
C------------------9--8--9-------------------------
G--------------------------------------------------

Y siempre me dejaron las mujeres,

A--7---------------------------------------------
E-----10--8--7--------------7-----------7--8--8--
C---------------9--8--7--8-----9--8--9-----------
G------------------------------------------------

Llorando con el alma hecha pedazos,

A--3--5--3--0-----0-----------
E--------------3-----3--2--1--
C-----------------------------
G-----------------------------

Y nunca le reprocho mis heridas,

A--2P0-----      A--0----------------
E-------1--      E-----3P0-----------
C----------      C----------0--------
G----------      G-------------0--2--

Se tiene que sufrir cuando se ama,

A--7--5--3--2-------------------------
E--8--7--5--4--4--4--4H5--4---4H5--4--
C--------------4--4--4H5--4---4H5--4--
G--9--7--5--4-------------------------

Las horas más hermosas de mi vida,

A--0-----------------
E-----0--------------
C--------0-----------
G-----------4--3--2--

Las he pasado a lado de una dama,

Pudiéramos morir en las cantinas,

A--3H5--3--------------------
E--3----3--5--3H5--3H5--3H5--
C----------4--4H4--4H4--4H4--
G----------------------------

Y nunca lograríamos olvidarlas,

Mujeres oh mujeres tan divinas,

No queda otro camino que adorarlas,

A-----------7-----------5-----------3-----------2-----------0---------
E--------7-----7-----5-----5-----3-----3-----1-----1-----0-----0------
C-----8-----------5-----------4-----------2-----------0---------------
G--9--------------------------------------------------------------4---

A-------------------------1---
E-----3-----------1-------0---
C--2-----2-----0-----2----2---
G-----------2-------------1---
D-------------------------2---
A-------------------------0---

No queda otro camino que adorarlas.


Cualquier duda o petición de alguna canción escríbanme a willicar696@
Suggest correction
Give kudos to tab author, rate the tab!
1 2 3 4 5
comments
print report bad tab
guest
You may want to rate the tab now too:
select rating
Wanna post a correction for this tab? Suggest correction