Oops, an error
Loading. Please wait.

Mujeres Divinas Tab

version 2
version 2

Whole song

63 views 1 this week
no commentswrite comment
1 2 3 4 5
3 more votes to show rating
add to favorites
×
Save as Personal and add changes to this tab that will be seen only by you. Learn more ›
×
You can save this tab as Personal to edit and correct it or add notes. All changes will be seen only by you. Learn more »
save as personal
new!
launch autoscroll
font size
0
reset
how to read this tab
guitar tuner
Autoscroll
slow
fast
+/-
esc
set tempo
stop
DESDE TUXPAN VERACRUZ

Se toca con requinto o guitarra el en 5º traste

CHEQUENLA VALE LA PENA NO TIENE ERRORES
Y SI LES GUSTO NO SE LES OLVIDE VOTAR CON UN 10


a|---------------------------------------||
E|-0h1p0---0-12-10-8-7-7h8p7--5--0-------||
C|-------3-------------------------0-----||
G|---------------------------------------||
D|---------------------------------------||
A|---------------------------------------||

a|-0h1p0---0-12-10-8-7-7h8p7-5-7-3-5-0---||
E|-------4-----------------------------1-||
C|---------------------------------------||
G|---------------------------------------||
D|---------------------------------------||
A|---------------------------------------||

a|--------2-----7---7--7p5-4-7p5-4-5p3-3-2-3-5-7-------------------------||
E|--2-3-4---4s7---7----7---6-7---6-5---5-4-5-7-8-------------------------||
C|-----------------------------------------------------------------------||
G|-----------------------------------------------------------------------||
D|-----------------------------------------------------------------------||
A|-----------------------------------------------------------------------||

a|-----------------------------------------------------------------------||
E|-0h1p0---0-12-10--8-10-8-0---0-7-8-7-0---0--5-7-5-0---0--3-5-3-0---0---||
C|-------3-------------------0-----------0------------0------------0-----||
G|-----------------------------------------------------------------------||
D|-----------------------------------------------------------------------||
A|-----------------------------------------------------------------------||

a|--8-10-8-0---0--7-8-7-0---0--5-7-5-0---0--3-5-3-0---------2------------||
E|-----------1------------1------------1------------1-2-3-4---4s10-------||
C|-----------------------------------------------------------------------||
G|-----------------------------------------------------------------------||
D|-----------------------------------------------------------------------||
A|-----------------------------------------------------------------------||

a|------8----7----7p5---5p3---2--0-0----0--------------------------------||
E|---10----8----7-----5-----4---------4----0h1p0-------------------------||
C|-----------------------------------------------0-----------------------||
G|-------------------------------------------------2---------------------||
D|-----------------------------------------------------------------------||
A|-----------------------------------------------------------------------||


S i m b o l o g í a:

SLIDE (arrastre)  >>>>>  e ||---------1-s-3-----------
HAMMER (martillo) >>>>>  e ||---------1-h-3-----------
PULL OFF (tirón)  >>>>>  e ||---------3-p-1-----------

cualquier duda o comentario aqui esta mi correo:

joshua_14mic@
Suggest correction
Give kudos to tab author, rate the tab!
1 2 3 4 5
comments
print report bad tab
guest
Wanna post a correction for this tab? Suggest correction