Oops, an error
Loading. Please wait.

Odiame Tab

version 1
version 1

Whole song

730 views 12 this week
no commentswrite comment
1 2 3 4 5
2 more votes to show rating
add to favorites
launch autoscroll
font size
0
reset
how to read this tab
guitar tuner
×
Best way to learn
"Odiame"
Autoscroll
slow
fast
+/-
esc
set tempo
stop
autor: Rafael otero
Sacada por juan antonio alor hernanadez
alguna duda manden un e-mail a jalorh@

SE TOCA CON UN REQUINTO CON EL CAPO EN EL TRASTE 2

                         INTRODUCCION

E-------------------5---4---7---5---8---8---7---10---8--8--12---12--10--
B-1--3---4---5--5-------------------------------------------------------
G-2--4---4---5--5---5---4---7---5---9---9---7---10---9--9--12---12--10--
D-----------------------------------------------------------------------
A-----------------------------------------------------------------------
E-----------------------------------------------------------------------     
                                             riff1
E---13--13---12--12--12--12--12--12--12--12-/-0--0---10--10--0--12--0--0
B-------------------------------------------/---------------------------
G---14--14---12--12--12--12--12--12--12-----/---------------------------
D-------------------------------------------/---------------------------
A-------------------------------------------/---------------------------
E-------------------------------------------/---------------------------

E---10--10--0--12--0--0/--8--8--8--8--8--------------------2--2--2--5--4
B----------------------/-----------------0--0--0--4--4--4---------------
G----------------------/------------------------------------------------
D----------------------/------------------------------------------------
A----------------------/------------------------------------------------
E----------------------/------------------------------------------------

E--5--6--5--6--7--6--7--8--7--8--9--8--9--10--10--12--10------10--------
B---------------------------------------------------------12-------12---
G-----------------------------------------------------------------------
D-----------------------------------------------------------------------
A-----------------------------------------------------------------------
E-----------------------------------------------------------------------

E------9----------8----------/-----------0------------0--5--4---------4-
B--11-----11--10-----10------/--0--1--2-----1------1-----------3-----3--
G-----------------------10---/-----------------2------------------4-----
D----------------------------/------------------------------------------
A----------------------------/------------------------------------------
E----------------------------/------------------------------------------
E--7--5-----------5--8--7-----------7--10--8---------8--12--10----------
B--------5-----5-----------8-----8-----------8----8-------------12------
G-----------5-----------------7-----------------9-------------------12--
D-----------------------------------------------------------------------
A-----------------------------------------------------------------------
E-----------------------------------------------------------------------
E------10--13--12-----------------------15--15--15--16----------16------
B--12--------------13------13------13---------------12--12--12--12--12--
G----------------------12------12---------------------------------------
D-----------------------------------------------------------------------
A-----------------------------------------------------------------------
E-----------------------------------------------------------------------
E------16----------17----------17----------17--17--17--/--3--2--0-----1-
B--12--12--12--12--13--13--13--13--13--13--13--13--13--/-----------3----
G------------------------------------------------------/---------------
D------------------------------------------------------/----------------
A------------------------------------------------------/----------------
E------------------------------------------------------/----------------

E--0--------0--------------------------------------------------0-----5--
B-----3--1-----3--1--0--3--1--0--3--1--0--3--1--0--------1--------1-----
G--------------------------------------------------2--------2-----------
D-----------------------------------------------------2-----------------
A-----------------------------------------------------------------------
E-----------------------------------------------------------------------

-----------------------------------------------------------------------

   LAm          m7
Odiame por piedad
    LAm
yo te lo pido

E--0---------------------
B-----3--2--1p2h1--------
G------------------------

    LA7
Odiame sin medida
       REm
ni clemencia

E--0--1--3--5-----
B--2--3--5--6-----

  2°Do
Odio quiero mas
              DO
que indiferencia

D--2--0---------
A--3--2--3--2---
E--------5--4---
  m7
Por que el rencor
                    LAm
hiere menos que el olvido

   ( Se repite)

Coro
2°do
Si tu me odias
                  DO
quedare yo convencido
2°do
De que me amaste mujer
             DO
con insistencia

D--2--0---------
A--3--2--3--2---
E--------5--4---
  m7
Pero ten precente
                        LAm
de acuerdo a tu experiencia
  FA                m7
Que tan sol se odia
  LAm
lo querido


Se repite la introduccion solo cambia donde dice riff1 a esto...

E--0--10--0--12--0--10--0--12--0--8-------------------------------------

LAm
Que vale mas
   m7         LAm
tu niña orgullosa

E--0---------------------
B-----3--2--1p2h1--------
G------------------------

LA7
O vale mas
               REm
tu debil hermosura

E--0--1--3--5-----
B--2--3--5--6-----

  2°do
Piensa que en el fondo
         DO
de la fosa

D--2--0---------
A--3--2--3--2---
E--------5--4---

  m7
llevaremos la misma
   LAm
vestidura

       (Se repite)

Coro....Si tu me odias......
____________________________
Suggest correction
Give kudos to tab author, rate the tab!
1 2 3 4 5
comments
print report bad tab
guest
You may want to rate the tab now too:
select rating
Wanna post a correction for this tab? Suggest correction