Oops, an error
Loading. Please wait.

Odiame Tab

version 2
version 2

Whole song

301 views 1 this week
no commentswrite comment
1 2 3 4 5
3 more votes to show rating
add to favorites
launch autoscroll
font size
0
reset
how to read this tab
guitar tuner
×
Best way to learn
"Odiame"
Autoscroll
slow
fast
+/-
esc
set tempo
stop
>>>>>>  ODIAME   <<<<<<<<<<

introduccion:

EL COMPAÑAMIENTO ES: 

         Am       E        Am        G7           C          G7              C  
-0-0-0--0-0--5-5-4-4-7-7--5-5--8--8--7-7-10-10--8--8-12-12-10-10-13-13-12-12-12-12-----
-1-2-4--5-5--6-6-5-5-9-9--6-6-10-10--8-8-12-12-10-10-14-14-11-11-15-15-13-13-13-13-----
---------------------------------------------------------------------------------------
---------------------------------------------------------------------------------------
---------------------------------------------------------------------------------------
---------------------------------------------------------------------------------------

         E                   Am                   B7                  E       
-0-0-12-0-0-0-0-0--12-0-0-0-0-10-0-9-0-8-0-7-----------------7-8-9-10v12-10-9-7--------
---------------------------------------------0-0---------7-7--------------------8------
-----------------------------------------------------8-8--------------------------9----
-------------------------------------------------9-9-----------------------------------
---------------------------------------------------------------------------------------
---------------------------------------------------------------------------------------

LAm           MI7           LAm
Odiame por piedad yo te lo pido
LA7                       REm
odiame sin medida ni clemencia
SOL7                      DO
odio quiero màs que indiferencia
            MI7
porque el rencor
                     LAm
hiere menos que el olvido.


CORO

          SOL7
Si tu me odias
                DO
quedarè yo convencido
           SOL7
de que me amaste
               DO
mujer con insistencia


            MI7
pero ten presente 
                    LAm
de acuerdo a la experiencia
                 MI7
que tan sòlo se odia
      LAm
lo querido (BIS).

a qui biene el requinto este sale conpractica ok va


         Am       E        Am        G7           C          G7              C  
-0-0-0--0-0--5-5-4-4-7-7--5-5--8--8--7-7-10-10--8--8-12-12-10-10-13-13-12-12-12-12-----
-1-2-4--5-5--6-6-5-5-9-9--6-6-10-10--8-8-12-12-10-10-14-14-11-11-15-15-13-13-13-13-----
---------------------------------------------------------------------------------------
---------------------------------------------------------------------------------------
---------------------------------------------------------------------------------------
---------------------------------------------------------------------------------------

         E                   Am                   B7                  E       
-0-0-12-0-0-0-0-0--12-0-0-0-0-10-0-9-0-8-0-7-----------------7-8-9-10v12-10-9-7--------
---------------------------------------------0-0---------7-7--------------------8------
-----------------------------------------------------8-8--------------------------9----
-------------------------------------------------9-9-----------------------------------
---------------------------------------------------------------------------------------
---------------------------------------------------------------------------------------

--0-0-0----5-5-4----7-7-5----8-8-7----10-10-8----12-12-10--------13-13-12------12---12-
--0-2--1-0------5-5------5-5------8-8--------8-8----------10--10---------13--13--13-13-
--------2--------4--------5--------7----------8-------------10-------------12-------12-
---------------------------------------------------------------------------------------
---------------------------------------------------------------------------------------
---------------------------------------------------------------------------------------

-13-15-16-0-0-16-0-0-16-0-0-16-0-0-17-0-0-17--10-13-10---10----------------
-------------------------------------------------------12----12-9-12-9-----
-----------------------------------------------------------------------9---
---------------------------------------------------------------------------
---------------------------------------------------------------------------
---------------------------------------------------------------------------

                  MI7
Que vale màs yo humilde
        LAm
tu orgullosa
       LA7               REm
o vale màs tu dèbil hermosura
SOL7                          DO
piensa que en el fondo de la fosa
    MI7                LAm
llevaremos la misma vestidura 

          SOL7
Si tu me odias
                DO
quedarè yo convencido
           SOL7
de que me amaste
               DO
mujer con insistencia


            MI7
pero ten presente 
                    LAm
de acuerdo a la experiencia
                 MI7
que tan sòlo se odia
      LAm
lo querido

-0-0-0--0-0-5-5-4-4-7-7-5-5-4-5--------------------
-1-2-4--5-5-6-6-5-5-9-9-6-6-5-6--------------------
---------------------------------------------------
---------------------------------------------------
---------------------------------------------------
---------------------------------------------------
Suggest correction
Give kudos to tab author, rate the tab!
1 2 3 4 5
comments
print report bad tab
guest
You may want to rate the tab now too:
select rating
Wanna post a correction for this tab? Suggest correction