Oops, an error
Loading. Please wait.

Pecador Tab

21 views 1 this week
no commentswrite comment
1 2 3 4 5
3 more votes to show rating
add to favorites
launch autoscroll
font size
0
reset
how to read this tab
guitar tuner
Autoscroll
slow
fast
+/-
esc
set tempo
stop
Help us to improve Ultimate-Guitar.com Take our survey!
×
Bueno esta cancion esta tocada en requinto lo que hace
que cuando sueana la guitarra las notas suenen un poco
diferente pero suenan bien lo demas si suena bien pero
si quieren cambiarle haganlon para perfeccionarla,esta
en orden como va a veces se repetin es solo poner
atenceion y buscar mas arriba y tocarlo.

bueno el requinto esta en La =  A


-------------0------------0------------1-1-1-1-1-1-1-
-2~~3~~----2---2--------2---2------------------------
-1~~2~~--2-------2----2-------2-etc...---------------
-----------------------------------------------------
-------0------------0--------------------------------
-----------------------------------------------------

                                           ^ v ^ ^ v ^ ^ ^
----1-1-----1-----1-1-----1-----1-1-----1--2-2-2-1-1-1-2-1-
----2-2-----2-----2-2-----2-----2-2-----2--3-3-3-2-2-2-3-2-
----2-2-----2-----2-2-----2-----2-2-----2------------------
-----------------------------------------------------------
-2-------2-----2-------2-----2-------2---------------------
-----------------------------------------------------------


                                           ^ v ^ ^ v ^ ^ ^
----1-1-----1-----1-1-----1-----1-1-----1--2-2-2-1-1-1-2-1-
----2-2-----2-----2-2-----2-----2-2-----2--3-3-3-2-2-2-3-2-
----2-2-----2-----2-2-----2-----2-2-----2------------------
-----------------------------------------------------------
-2-------2-----2-------2-----2-------2---------------------
-----------------------------------------------------------


----1-1-----1-----1-1-----1-----1-1-----1------1-1-----1--
----2-2-----2-----2-2-----2-----2-2-----2------2-2-----2--
----2-2-----2-----2-2-----2-----2-2-----2------2-2-----2--etc..
----------------------------------------------------------
-2-------2-----2-------2-----2-------2------2-------2-----
-----------------------------------------------------------


-2-2-1-1-2-----2-2-3-2-1-2----2-2-2-2--------
-3-3-2-2-3-----3-3-4-3-2-3----3-3-3-3--------
---------------------------------------------
---------------------------------------------
---------------------------------------------
---------------------------------------------


-12-11-10-9---------------------------------
-----------12-11-10-9-----------------------
----------------------12-11-10-9------------
--------------------------------12-11-10-9--
--------------------------------------------
--------------------------------------------


-12-11-10-9---------------------------------
-----------12-11-10-9-----------------------
----------------------12-11-10-9------------
--------------------------------12-11-10-9--
--------------------------------------------
--------------------------------------------


-12-11-10-9----------12-11-10-9-------------
-----------12-11-10-9-----------12-11-10-9--
--------------------------------------------
--------------------------------------------
--------------------------------------------
---------------------------------------------


-12-11-10-9-12-11-10-9-12-11-10-9-------
----------------------------------------
----------------------------------------
----------------------------------------
----------------------------------------
----------------------------------------


-12-11-10-9----------------------------------------
-12--------12-11-10-9-------------------9-10-11-12-
---------------------12-11-10-9-10-11-12-----------
---------------------------------------------------
---------------------------------------------------
---------------------------------------------------


-12-11-10-9----------------------------------------
-12--------12-11-10-9-------------------9-10-11-12-
---------------------12-11-10-9-10-11-12-----------
---------------------------------------------------
---------------------------------------------------
---------------------------------------------------


-12-10-9-8--5-5--12-10-9-8---5-5---
-11------7-6-6-6-11------7--6-6-6--
-----------------------------------
-----------------------------------
-----------------------------------
-----------------------------------
Suggest correction
Give kudos to tab author, rate the tab!
1 2 3 4 5
comments
print report bad tab
guest
You may want to rate the tab now too:
select rating
Wanna post a correction for this tab? Suggest correction