Oops, an error
Loading. Please wait.

Poquita Fe Tab

version 1
version 1

Whole song

180 views 3 this week
no commentswrite comment
1 2 3 4 5
3 more votes to show rating
add to favorites
launch autoscroll
font size
0
reset
how to read this tab
guitar tuner
Autoscroll
slow
fast
+/-
esc
set tempo
stop
Requinto (Con capo en 2º traste)

h - hammer on/pull off


A |--------------------------0--0-----0--3--3-----3----|
E |--------------1--1-----1--------1-----------5-------|
C |--0--0---0-------0---------------------------|
G |--------2-------------------------------------------|
D |----------------------------------------------------|
A |----------------------------------------------------|


--3--3--6--3--------3-------------------------------|
--------------5--5-----5--2--2--5--2--------2-------|
--------------------------------------3--3-----3----|
----------------------------------------------------|
----------------------------------------------------|
----------------------------------------------------|


--------------------------1--1-----1--5--5-----5----|
--------------3--3-----3--------3-----------6-------|
--2--2-----2--------2-------------------------------|
--------3-------------------------------------------|
----------------------------------------------------|
----------------------------------------------------|


--5--5--8--5--------5-------------------------------|
--------------7--7-----7--4--4--7--4--0--0--0--0----|
----------------------------------------------------|
----------------------------------------------------|
----------------------------------------------------|
----------------------------------------------------|


--7h--0--------0---2---3---5---5---3---2---0---5---
---------0-----------------------------------------
------------0--------------------------------------
---------------------------------------------------
---------------------------------------------------
---------------------------------------------------


3-----2-----0-----|
--------------------|
--------------------|
--------------------|
--------------------|
--------------------|


--7h-----0----------------------------
----------------0---------------------
-----------------------0--------------
--------------------------------------
--------------------------------------
--------------------------------------


----0-----2-----3-----5-----3-----2---
--------------------------------------
--------------------------------------
--------------------------------------
--------------------------------------
--------------------------------------


----0-----2-----3-----5-----3-----2-----0---
--------------------------------------------
--------------------------------------------
--------------------------------------------
--------------------------------------------
--------------------------------------------


------5-----------------7-------------------|
--------------------------------------------|
--------------------------------------------|
--------------------------------------------|
--------------------------------------------|
--------------------------------------------|


--8-----------------7--8--9-----------------8--9----|
----------------------------------------------------|
----------------------------------------------------|
----------------------------------------------------|
----------------------------------------------------|
----------------------------------------------------|


--10----------------9--10-11----------------10-11---|
----------------------------------------------------|
----------------------------------------------------|
----------------------------------------------------|
----------------------------------------------------|
----------------------------------------------------|


--12h0--------3--3--5--2--3-----------0--0--1-------|
--------0--------------------------------------3----|
-----------0----------------------------------------|
----------------------------------------------------|
----------------------------------------------------|
----------------------------------------------------|


--0-------------------------------------------------||
--------------1--1--3--0--1-------------------------||
----------------------------------------------------||
----------------------------------------------------||
----------------------------------------------------||
----------------------------------------------------||
Suggest correction
Give kudos to tab author, rate the tab!
1 2 3 4 5
comments
print report bad tab
guest
Wanna post a correction for this tab? Suggest correction