Oops, an error
Loading. Please wait.

Poquita Fe Tab

version 2
version 2

Whole song

80 views 1 this week
no commentswrite comment
1 2 3 4 5
3 more votes to show rating
add to favorites
launch autoscroll
font size
0
reset
how to read this tab
guitar tuner
×
Best way to learn
"Poquita Fe"
Autoscroll
slow
fast
+/-
esc
set tempo
stop
Esta es un correccion le agregue un par de tonos que le
faltavan por alli asi que chequenle cualquier
duda escribanme a mi mail.


\
   1|----------------------0--0----0--3--3--0--3--3
 ) 2|-------------1-1----1-------1-----------------
   3|---0-0----0-------0---------------------------
   4|--------2-------------------------------------
 ) 5|----------------------------------------------
   6|----------------------------------------------
__/

  \
   1|--3---6--3----3-------------------------------
 ) 2|-----------5----5------5----------2-----------
   3|------------------6-6----6--2-2-----3-2-2-----
   4|----------------------------------------------
 ) 5|----------------------------------------------
   6|----------------------------------------------
__/

  \
   1|------------2-2-2-2-2-5--2--------2-------------------
 ) 2|-------3-3-3---4--------4-4-----4----------0-0-0--
   3|-----2----2-----------------------5-5--5----------
   4|---3------------------------------------------
 ) 5|----------------------------------------------
   6|----------------------------------------------
__/

  \
   1|---8--0-------0--2-3-5-5-5-3-2-0--5-3-2-0---8-
 ) 2|--------0-------------------------------------
   3|----------0-----------------------------------
   4|----------------------------------------------
 ) 5|----------------------------------------------
   6|----------------------------------------------
__/

  \
   1|--0------0-2-3-5-5-5-3-2-0---5-7-8--7-8-9-----
 ) 2|----0-----------------------------------------
   3|------0---------------------------------------
   4|----------------------------------------------
 ) 5|----------------------------------------------
   6|----------------------------------------------
__/

  \
   1|---8-9-10---9-10-11--0------------------------
 ) 2|-----------------------0----------------------
   3|-------------------------0--------------------
   4|----------------------------------------------
 ) 5|----------------------------------------------
   6|----------------------------------------------
__/

  \
   1|-----3----3---5---2---3-----------------
 ) 2|-----5----5---6---4---5---5--7--3--5---2-2-4-1-2
   3|--------------------------5--7--3--5---2-2-4-1-2
Suggest correction
Give kudos to tab author, rate the tab!
1 2 3 4 5
comments
print report bad tab
guest
You may want to rate the tab now too:
select rating
Wanna post a correction for this tab? Suggest correction