Oops, an error
Loading. Please wait.

Que Nadie Sepa Mi Sufrir Tab

135 views 1 this week
no commentswrite comment
1 2 3 4 5
3 more votes to show rating
add to favorites
launch autoscroll
font size
0
reset
how to read this tab
guitar tuner
Autoscroll
slow
fast
+/-
esc
set tempo
stop
Help us to improve Ultimate-Guitar.com Take our survey!
×
®
Afinación :Requinto al aire A D G C E A

|--------------1212--|--1010----8-8-----7-7-----|5-5-----3-3---1-3-5-3h5p3-1-|
|--------------1313--|--1212----1010----8-8-----|6-6-----5-5---3-5-6-5-----3-|
|--------------------|--------------------------|----------------------------|
|--141514131414----14|12----1210----109-----9-7-|----7-5-----5---------------|
|--------------------|--------------------------|----------------------------|
|--------------------|--------------------------|----------------------------|

|3-3/10108h108-7h8p7-7-|5h7p5-5-3h5p3-3-1h3p1-1-0-0-|1-0h1p0---0-6h5-----5-------6h5-----|
|5-5/121210--108-----8-|6-----6-5-----5-3-----3-----|--------3-------5-----5---5-----5---|
|----------------------|----------------------------|------------------6-----6---------6-|
|----------------------|----------------------------|------------------------------------|
|----------------------|----------------------------|------------------------------------|
|----------------------|----------------------------|------------------------------------|

|5-------6h5-----5-----------------------5-|5---5-10101213121012--12--|
|--5---5-----5-----5---5---------6-6---6---|--6-----------------10--10|
|----6---------6-----6---7-7---7-----7-----|--------------------------|
|----------------------------7-------------|--------------------------|
|------------------------------------------|--------------------------|
|------------------------------------------|--------------------------|

|------12--1212------0---0---|--------0---5-|||||||||||||||
|--------------0---0---3---3-|----1-----1---|||||||||||||||
|9-7/9---9-------9-----------|2-----2-------|||||||||||||||
|----------------------------|--2-----------|||||||||||||||
|----------------------------|--------------|||||||||||||||
|----------------------------|--------------|||||||||||||||

Nota:Para lograr el apagado del principio se apaga con la mano derecha..

Suggest correction
Give kudos to tab author, rate the tab!
1 2 3 4 5
comments
print report bad tab
guest
You may want to rate the tab now too:
select rating
Wanna post a correction for this tab? Suggest correction