Oops, an error
Loading. Please wait.

Sin Ti Tab

97 views 3 this week
no commentswrite comment
1 2 3 4 5
3 more votes to show rating
add to favorites
launch autoscroll
font size
0
reset
how to read this tab
guitar tuner
×
Best way to learn
"Sin Ti"
Autoscroll
slow
fast
+/-
esc
set tempo
stop
e|----------10-12-10-12-10-----------
b|-7-8-9-10----------------12--------
g|-----------------------------------
d|-----------------------------------
a|-----------------------------------
e|-----------------------------------

e|-15-14-12-------------17-15-14-----------
b|-12-------15-14-12----14-------17-15-14--
g|-12----------------14-14-----------------
d|-----------------------------------------
a|-----------------------------------------
e|-----------------------------------------

e|-----------------------------------------
b|----------------14-15-14-15-15-17-15-17--
g|-16-14-16-14-16--------------------------
d|-----------------------------------------
a|-----------------------------------------
e|-----------------------------------------

e|-14-15-14-15-15-17-15-17-15-17-15-17-19-17-15-14---
b|-------------------------------------------------17
g|---------------------------------------------------
d|---------------------------------------------------
a|---------------------------------------------------
e|---------------------------------------------------

sin tiiiiiii:

e|-----------------------------------------
b|-7-8-9--10--(esto va repiqueteado)-------
g|-7-9-10-11-------------------------------
d|-----------------------------------------
a|-----------------------------------------
e|-----------------------------------------


eeeeeso es todo amigos.
Suggest correction
Give kudos to tab author, rate the tab!
1 2 3 4 5
comments
print report bad tab
guest
You may want to rate the tab now too:
select rating
Wanna post a correction for this tab? Suggest correction