Oops, an error
Loading. Please wait.

Vagabundo Tab

130 views 1 this week
no commentswrite comment
1 2 3 4 5
3 more votes to show rating
add to favorites
launch autoscroll
font size
0
reset
how to read this tab
guitar tuner
×
Best way to learn
"Vagabundo"
Autoscroll
slow
fast
+/-
esc
set tempo
stop
Req.(La-).

 |___________Re-____________|___________La-___________|_____________Mi7________|_La-__|_La7_|

e|--1-----------------1-----0----------0----5---5-----4----4----0-----1----1-----0----[-*5-]--|-----Se----------
B|--3-----3-----------3-----1-----1----1----6---6-----5----5----0-----3----3-----1----[-*2-]--|---repite--------
G|--------2-----2-----------------2-----------------------------------------------------------|--hasta antes----
D|--------------3-----------------------------------------------------------------------------|-----de[*]-------

*= Se toca 6 veces rápidas.

En ves de [*] en la repetición se toca:

 |___La-___|

e|---------|
B|--1------|
G|--2--2---|
D|-----2---|


 |____Sol7____|___Do+____|____Sol7____|____Do+_____|____Sol7____|___Do+____|__Si7__|_______Mi7__________|___La-____|_Mi7

e|-------------------------------------------------|-------------------------------------------------------------------
B|------------------------------------1---------1--|-------------------------------------------------------------------
G|------------------0-0--2--4,--0--2-------0--2----|------------------0-0---------------------1-1--------2-2--------4-4
D|------0--3--2---2----------------------2---------|------0--3--2---2-----4-1--------2,-2-3-2------2-3-2-----2-3-2-----
A|----2---------3----------------------------------|----2---------3------------2-3-2-----------------------------------
E|--3,---------------------------------------------|--3,---------------------------------------------------------------

 ________|____LA-___|(La-)              (LA-)                 |___RE-_____|__LA-___|__MI7__|__LA-___
                       
e|------------------|-----------------------------------------|-------------------------------------
B|--------1-1,-1-1--|-----------------------------------------|-------------------------------------
G|------------------|--2---0-------------2-2---0--------------|---------0---------------------------
D|--2-3-2-----------|----2---0--3---2--------2---0--3---2-----|--0,-2-3------0-2-3-----0-2---0-2----
A|------------------|-------------3---2,--------------3---2,--|------------3-------2-3-----3--------
E|------------------|-----------------------------------------|-------------------------------------

 ___|____Re-____|_______La-____|__Mi7__|____La-______|__Mi7________

e|---------------------------------------------|T----0,-12,--[Ver explicación #1 y #2]--------|
B|---------------------------------------------|----------------------------------------------|
G|-------------------------0-------0-----------|----------------------------------------------|
D|--7-7-7=>3-3-3,-7-7-7=>2---3-2-----3-2-------|----------------------------------------------|
A|-------------------------------2-------3-2-0-|----------------------------------------------|
E|---------------------------------------------|----------------------------------------------|

=> Deslisar el dedo desde esta posición a la siguinte.
T= Trémolo. 

Explicación #1.- En la canción original, las siguintes notas que se escuchan por fuera de de los trastes, osea, 
por delante de la 'boca' antes del puente, por lo que estos toque los tienes que buscar conforme al sonido que 
dan. Para obtener estos sonidos te recomiendo que undas la cuerda un poco con la punta y la uña de tu dedo índice 
para que no se escuche muy apagado el sonido. 

Explicación #2.- Si la vas a tocar en la guitarra al aire y no en requinto, una alternativa es que quedarian de 
la siguiente forma en lugar de la del requinto original:


e|T-----0,-7, NT--7-7-7,5-5-5,3-3-3,1-1-1--------------------|-----Se---------------------
B|----------------------------------------5-5-5,4=>5(7 VECES)|---repite-------------------
G|-----------------------------------------------------------|-el-requinto----------------
D|T--2,------------------------------------------------------|del principio de la canción-

NT= Sin trémolo.

Espero que no tenga errores, de ser así por favor mandame un mail para corregirla. Dudas, comentarios y sugerencias:
famfloma@
Suggest correction
Give kudos to tab author, rate the tab!
1 2 3 4 5
comments
print report bad tab
guest
You may want to rate the tab now too:
select rating
Wanna post a correction for this tab? Suggest correction