Oops, an error
Loading. Please wait.

Alma Vanidosa Tab

20 views 3 this week
no commentswrite comment
1 2 3 4 5
3 more votes to show rating
add to favorites
×
Save as Personal and add changes to this tab that will be seen only by you. Learn more ›
×
You can save this tab as Personal to edit and correct it or add notes. All changes will be seen only by you. Learn more »
save as personal
new!
launch autoscroll
font size
0
reset
how to read this tab
guitar tuner
Autoscroll
slow
fast
+/-
esc
set tempo
stop
Esta cancion se la dedico a todas las personas que an tenido
problemas de amor...

Bolero

Intro: G\F\E7\2X F E7 F E7\

e:--7/8-7-5---7-5-----5-------------|
B:----------8-----8-6---8-6-5--0-5--| 2X
G:----------------------------------|

e:------------------------------------------7-8-10-8-7-5-8-7-------|
B:--------0-1-3-1-0---1-0---------5-4-5-6---------------------6-5--|
G:------------------2-----2----------------------------------------|
D:--0-2-3--------------------3-2-----------------------------------|
A:-----------------------------------------------------------------|
E:-----------------------------------------------------------------|

e:--------5-7-8-7-5-5\7-5-4-4\5--|
B:--5-7-9------------------------|
G:-------------------------------|

Estas son unos de los requintos que hace la guitara.

e:--8-7-5---------|-------------------|
B:---------8-7-5--|----5-7-8----------|
G:----------------|--8----------------|

Tocas esta parte cuando el * indica.

D:--------------|
A:--------1-2~--|
E:--2-3-4-------|

            F                E7
Estoy convencido que para vivir
        *            Am/
es un estorbo el corazon
            E7
hay que mentir

y hacer sufrir

porque fingir es lo mejor
       Am    
el que tira la vida al romance
           E7                Am
se queda solito sin una ilucion


Antes cuando yo queria
                  G          Am
todos se reian de mi pobre amor
 G                   C  
ahora que soy indiferente
            F                   E7  
que carinosamente me dan su corazon

    Am   
Por eso del mundo yo me rio

y aunquen me llamen frio
   G              Am  
no vuelvo yo a querer
 G                   C      
que si la mujer es caprichosa
             E7  
mi alma es vanidosa
                 Am\ 
yo que le voy a hacer

yo que le voy a hacer

si mi vida es asi

inter: G F E72X F E7 F E7\

Luego del interludio se repite la cancion otra ves.

Bueno espero que les guste!!!
Preguntas e comentarios favor de mandarme un E-mail.
Suggest correction
Give kudos to tab author, rate the tab!
1 2 3 4 5
comments
print report bad tab
guest
Wanna post a correction for this tab? Suggest correction