Oops, an error
Loading. Please wait.

Esperame En El Cielo Tab

71 views 1 this week
no commentswrite comment
1 2 3 4 5
3 more votes to show rating
add to favorites
launch autoscroll
font size
0
reset
how to read this tab
guitar tuner
×
Best way to learn
"Esperame En El Cielo"
Autoscroll
slow
fast
+/-
esc
set tempo
stop
REQUINTO AL AIRE

INTRO
                            Dm        E7                        Am
A--7-8-7-6-7---12----12--12-----8--------5-6-5-4-5--10---10-10-----7--
E--------------10----10--10-----10------------------8----8--8------8--
C---------------------------------------------------------------------
G---------------------------------------------------------------------
D---------------------------------------------------------------------
A---------------------------------------------------------------------


   Am             B7       B7                                  Am
A-----3-5-3-2-3---9----9--9----6----------------------------------------------
E-----------------7----7--7----7----0-1-0-4-0-0-0-7-0-0-0-10-0-0-0-7-0-0-0-5--
C-----------------------------------------------------------------------------
G-----------------------------------------------------------------------------
D-----------------------------------------------------------------------------
A-----------------------------------------------------------------------------


                Am    Harmonicos
A---7--5--3--2--5--0------12---------------------------
E---8--7--5--3--7--0------12---------------------------
C------------------0---12------------------------------
G------------------------------------------------------
D------------------------------------------------------
A------------------------------------------------------
Suggest correction
Give kudos to tab author, rate the tab!
1 2 3 4 5
comments
print report bad tab
guest
You may want to rate the tab now too:
select rating
Wanna post a correction for this tab? Suggest correction