Oops, an error
Loading. Please wait.

Espinita Tab

21 views 1 this week
no commentswrite comment
1 2 3 4 5
3 more votes to show rating
add to favorites
launch autoscroll
font size
0
reset
how to read this tab
guitar tuner
×
Best way to learn
"Espinita"
Autoscroll
slow
fast
+/-
esc
set tempo
stop
ESTA ROLA ME AGRADA POR EL RITMO QUE TIENE...
LA SAQUE DE LO MAS FACIL.. SIN LOS TIPICOS
ADORNITOS DONDE HACEN LLORAR LA GUITARRA...
PERO LOS QUE SABEN PONER ESOS DETALLITOS SE LOS 
PONDRAN....

INTRODUCCION....

1.|_9_9_9_9__12_11_10_10_10_9_______________________|
2.|___________________________12_10_9_9_9_10_9______|
3.|____________________________________________11_9_|
4.|_________________________________________________|
5.|_________________________________________________|
6.|_________________________________________________|


1.|___________________10__________9________________________|
2.|_______________________________________________12_______|
3.|_9_9_9_11_11_11_11____11_9_9_9___9______________________|
4.|___________________________________12_12_12_12____12_11_|
5.|________________________________________________________|
6.|________________________________________________________|


1.|__________________10__________9_12_12_10_9_________|
2.|___________________________________________12_10___|
3.|_9_9_9_11_11_11_11___11_9_9_9______________________|
4.|___________________________________________________|
5.|___________________________________________________|
6.|___________________________________________________|

INTERMEDIO

1.|_12_12_12_12_12__10_10_9_9_9_9__________________________|
2.|_______________________________12_11_11_11_12_11________|
3.|_________________________________________________12_11__|
4.|________________________________________________________|
5.|________________________________________________________|
6.|________________________________________________________|


1.|-10-10-10-10-10-9-9---------------------------------|
2.|--------------------12-12-12-10-9-9-9-10-9----------|
3.|-------------------------------------------11-9-----|
4.|----------------------------------------------------|
5.|----------------------------------------------------|
6.|----------------------------------------------------|


1.|-12-12-12-11*12-12-12-12-12--10-10-9-9-9-9------------------------|
2.|-------------------------------------------12-11-11-11-12-11------|
3.|-------------------------------------------------------------11---|
4.|------------------------------------------------------------------|
5.|------------------------------------------------------------------|
6.|------------------------------------------------------------------|


  SI ENCUENTRAN ALGUN PROBLEMAS NO OLVIDEN ESCRIBIRME....
UN SALUDOTE A MI MI NOVIA PAULA....
Suggest correction
Give kudos to tab author, rate the tab!
1 2 3 4 5
comments
print report bad tab
guest
You may want to rate the tab now too:
select rating
Wanna post a correction for this tab? Suggest correction