Oops, an error
Loading. Please wait.

Los Dos Tab

10 views 1 this week
no commentswrite comment
1 2 3 4 5
3 more votes to show rating
add to favorites
launch autoscroll
font size
0
reset
how to read this tab
guitar tuner
Autoscroll
slow
fast
+/-
esc
set tempo
stop
Help us to improve Ultimate-Guitar.com Take our survey!
×
Hey, amigos soy yo de vuelta espero que les aiga gustado
mis ultimas transcripciones.. aqui les mande es te requinto
y espero que les guste...

1)--12-14-15---12--------------
2)-----------------13-12-------
3)-----------------------------
4)-----------------------------
5)-----------------------------
6)-----------------------------

1)--11-13-14---11-12-11-----------------11-12--
2)----------------------12-11---11x3-12--------
3)---------------------------------------------
4)---------------------------------------------
5)---------------------------------------------
6)---------------------------------------------

1)--7x3------8-7----------------
2)------10x3-----8-7------------
3)------------------------------
4)------------------------------
5)------------------------------
6)------------------------------

1)------------------------------
2)--7-8-7-----------------------
3)--------8---------------------
4)------------------------------
5)------------------------------
6)------------------------------


Bueno amigos/a si tienen alguna duda,pregunta, o sugerencia
mandenme un mail.
Suggest correction
Give kudos to tab author, rate the tab!
1 2 3 4 5
comments
print report bad tab
guest
You may want to rate the tab now too:
select rating
Wanna post a correction for this tab? Suggest correction