Oops, an error
Loading. Please wait.

Motivo Y Razon Tab

14 views 1 this week
no commentswrite comment
1 2 3 4 5
3 more votes to show rating
add to favorites
launch autoscroll
font size
0
reset
how to read this tab
guitar tuner
×
Best way to learn
"Motivo Y Razon"
Autoscroll
slow
fast
+/-
esc
set tempo
stop
ESTA CANCION ESTA FREGONA, ESCUCHENLA Y LO VERAN.

ESTE ES EL INTRO :

6-----------------------
5-----------------------
4---2-------------------
3---2-------------------
2-1---------------------
1-----------------------

6----------------------------
5----------------------------
4----------------------------
3----------------------------
2----------------------------
1-777--555--333--5-3-5-3-5-3-

6----------------------------
5----------------------------
4----------------------------
3----------------------------
2----------------------------
1-777--555--333--5-3-5-3-5-3-

6----------------------------
5----------------------------
4----------------------------
3----------------------------
2-------12--10--8------------
1--9--7------------5--3--5-3-


YO TENGO UN MOTIVO
PARA MIS COSAS
YO TENGO UN MOTIVO
Y UNA RAZON

TE QUIERO MI VIDA
POR QUE ERES BONITA
LA MAS LINDA COSA 
DE LA CREACION

LA CULPA DE TODAS 
LAS PENAS MIAS 
LA TIENEN TUS OJOS 
CON ESE MIRAR.

Y DEBO QUERERTE
RAZON QUE INSPIRA
EL MOTIVO DIVINO 
DE ESTA REALIDAD.

Y PARA LAS COSAS 
QUE YO TENGO EN LA VIDA
SOLO EL RECURSO 
DE LA CONVICCION 

Y SI ES SABIDO QUE YO TENGO QUE OLVIDARTE
QUE POR MI BIEN NUNCA ME FALTE
EL MOTIVO Y LA RAZON

LA LA LA LA LA LA LA
LA LA LA LA LA LA LA
LA LA LA LA LA LA LA
LA LA LA LA LA LA LA, ETC..

Y PARA LAS COSAS...


*SE REPITE LA MISMA INTRODUCCION EN EL INTERMEDIO

SALUDOS A MIS CUATES DEL CORO DE JUCHITEPEC.
Suggest correction
Give kudos to tab author, rate the tab!
1 2 3 4 5
comments
print report bad tab
guest
You may want to rate the tab now too:
select rating
Wanna post a correction for this tab? Suggest correction