Oops, an error
Loading. Please wait.

Por Que Volviste Tab

19 views 1 this week
no commentswrite comment
1 2 3 4 5
3 more votes to show rating
add to favorites
launch autoscroll
font size
0
reset
how to read this tab
guitar tuner
×
Best way to learn
"Por Que Volviste"
Autoscroll
slow
fast
+/-
esc
set tempo
stop
Este es el requinto que toca John Harby (Dartagnan)
requintista de los Tri-o en la cancion Por que Volviste
Esta en La - (en el Requinto)

_      
  \                                       
   1|--0-5-7-8--0-8-10-12--0-5-7-8--0-8-10-12-
 ) 2|-----------------------------------------
   3|-----------------------------------------
   4|-----------------------------------------
 ) 5|-----------------------------------------
   6|-----------------------------------------
__/


__      
  \                                       
   1|--0-13-10---------------------------------
 ) 2|----------12-9----------------------------
   3|---------------10-------------------------
   4|------------------12-9--------------------
 ) 5|------------------------------------------
   6|------------------------------------------
__/

__      
  \                                       
   1|--0-5-7-8--0-8-10-12--0-5-7-8--0-8-10-12-
 ) 2|-----------------------------------------
   3|-----------------------------------------
   4|-----------------------------------------
 ) 5|-----------------------------------------
   6|-----------------------------------------
__/


__      
  \                                       
   1|--0-13-10---------------------------------
 ) 2|----------12-9----------------------------
   3|---------------10-------------------------
   4|------------------12-9--------------------
 ) 5|------------------------------------------
   6|------------------------------------------
__/

__      
  \                                       
   1|---0-10-8--0-7-5--0-3-1----------
 ) 2|------------------------3-5------
   3|---------------------------------
   4|---------------------------------
 ) 5|---------------------------------
   6|---------------------------------
__/


__      
  \                                       
   1|--------5----8--8-5-----7-5----5----5-7-5-4
 ) 2|----6-----6---------6-------6--------------
   3|------7---------------5-------5------------
   4|--7----------------------------------------
 ) 5|-------------------------------------------
   6|-------------------------------------------
__/


 Alguna duda o sujerencia o requintos de los tres Reyes
 no duden en mandarme un e-mail.
 Gerardo Lee Calera REynosa tamps. ( re5to@
Suggest correction
Give kudos to tab author, rate the tab!
1 2 3 4 5
comments
print report bad tab
guest
You may want to rate the tab now too:
select rating
Wanna post a correction for this tab? Suggest correction