Oops, an error
Loading. Please wait.

Rayito De Luna Tab

version 1
version 1

Whole song

37 views 1 this week
no commentswrite comment
1 2 3 4 5
3 more votes to show rating
add to favorites
launch autoscroll
font size
0
reset
how to read this tab
guitar tuner
Autoscroll
slow
fast
+/-
esc
set tempo
stop
Help us to improve Ultimate-Guitar.com Take our survey!
×
4---------------------------------------------
3-----------------------------------3---------
2-0-0-0-----------------------0-1-0---0-------
1-------7-8-7-5-3-3-5-3-5-3-2-----------0-----
/


5---------------------------0-2-3-------------------
4-------------------------------2-------------------
3-------------------------------0-------------------
2-----------------------4-------1-------------------
1-0-2-3-5-3-5-3-5-2-0-0---0-----0-0-0-0-2-3-5-3-2-0-
/


3-----------------------------------------------------
2-3-0-2-3---------0-2-3-------3-2-3-----3-2-3---------
1--------0-2-3-5-7-----0-2-3-5-----0-2-0-----0-2-3----
/


6-----------------3----
5-----------------2----
4-0-4-3-2-1-0-----0----
3-----------------0----
2-----------------0----
1-----------------1----
/


Este requinto se los paso para que agarren un poco
de agilidad.

Algunos consejos que deseen, ayuda o algo que aporten, manden un E-mail.
Suggest correction
Give kudos to tab author, rate the tab!
1 2 3 4 5
comments
print report bad tab
guest
You may want to rate the tab now too:
select rating
Wanna post a correction for this tab? Suggest correction