Oops, an error
Loading. Please wait.

Sin Un Amor Tab

20 views 1 this week
no commentswrite comment
1 2 3 4 5
3 more votes to show rating
add to favorites
launch autoscroll
font size
0
reset
how to read this tab
guitar tuner
×
Best way to learn
"Sin Un Amor"
Autoscroll
slow
fast
+/-
esc
set tempo
stop
YA SE QUE HAY MUCHAS TABS. DE ESTA ROLA... PERO YO
SE LAS MANDO COMO LA SAQUE...


1.|-----10--12--10-------------------------|
2.|--13-------------13--12--10--12---------|
3.|----------------------------------------|
4.|----------------------------------------|
5.|----------------------------------------|
6.|----------------------------------------|


1.|-----------10-----------------------------|
2.|---12--13------13--12--13--12--10------10-|
3.|-----------------------------------12-----|
4.|------------------------------------------|
5.|------------------------------------------|
6.|------------------------------------------|


1.|------------------------------------------|
2.|---10--12--13--12--10----------10---------|
3.|-----------------------12--11------13--12-|
4.|------------------------------------------|
5.|------------------------------------------|
6.|------------------------------------------|


1.|----------------------------------------|
2.|-------------9--10--11--12--13----------|
3.|---9--11--12----------------------------|
4.|----------------------------------------|
5.|----------------------------------------|
6.|----------------------------------------|


1.|------10--12--10--12--10-----------------|
2.|--13----------------------13--12--10--12-|
3.|-----------------------------------------|
4.|-----------------------------------------|
5.|-----------------------------------------|
6.|-----------------------------------------|


1.|----------10----------------------------|
2.|--12--13------13--12--10------10--------|
3.|--------------------------12------------|
4.|----------------------------------------|
5.|----------------------------------------|
6.|----------------------------------------|


1.|----------------------------------------|
2.|--10--12--13---12---10------------------|
3.|-------------------------12---11---9----|
4.|----------------------------------------|
5.|----------------------------------------|
6.|----------------------------------------|


BUENO ESO ES TODO.... SALUDOS A MI NOVIA PAULA....
Y A TODOS LOS GUITARRISTAS PERRONES DE MEXICO...
DUDAS... COMENTARIOS... ESCRIBANME...
Suggest correction
Give kudos to tab author, rate the tab!
1 2 3 4 5
comments
print report bad tab
guest
You may want to rate the tab now too:
select rating
Wanna post a correction for this tab? Suggest correction