Oops, an error
Loading. Please wait.

Tres Regalos Tab

41 views 1 this week
no commentswrite comment
1 2 3 4 5
3 more votes to show rating
add to favorites
launch autoscroll
font size
0
reset
how to read this tab
guitar tuner
×
Best way to learn
"Tres Regalos"
Autoscroll
slow
fast
+/-
esc
set tempo
stop
Escuchenla, está fácil.


Solo aganle el efecto que ellos le hacen (''''''''')


Aquí comienza el intro:

1----------------
2----------------
3---7---9---10---
4----------------
5----------------
6----------------


1---10---7-10-7-10-7-8----5-8-5-8-5-7----10-7-10-7-8-
2----------------------------------------------------
3----------------------------------------------------
4----------------------------------------------------
5----------------------------------------------------
6----------------------------------------------------

1---10---7-10-7-10-7-8----5-8-5-8-5-7----10-7-10-7-5-
2----------------------------------------------------
3----------------------------------------------------
4----------------------------------------------------
5----------------------------------------------------
6----------------------------------------------------

Y aquí em pieza la canción:

LAm
 Me espero
       1-----------------
       2-----------------
       3-----------------
       4-----------------
       5----3---2-1-0-----
       6-----------------
2ª de RE     REm              MI
 No voy a marcharme, no voy a dejarte

        LAm      MI
 Sin antes decir

LAm   2ª de RE     REm
      Que lloro, que sufro al mirarte

                 MI                LA  FA#m SIm MI (circulo de LA)
Tan cerca a mis manos, sin poderte haci i i i r

LA   FA#m    SIm   MI 
...........

Luego les mando la canción completa, porque se puede tocar de varias maneras,
y la que toco es la que enviaré, se escucha al 100%.

Esta canción se la dedico a Pilar que siempre pienso en ella. 
escuchenla y aprendansela, se las recomiendo.

Adiós.
Suggest correction
Give kudos to tab author, rate the tab!
1 2 3 4 5
comments
print report bad tab
guest
You may want to rate the tab now too:
select rating
Wanna post a correction for this tab? Suggest correction