Oops, an error
Loading. Please wait.

Triunfamos Tab

version 2
version 2

Whole song

17 views 1 this week
no commentswrite comment
1 2 3 4 5
3 more votes to show rating
add to favorites
launch autoscroll
font size
0
reset
how to read this tab
guitar tuner
Autoscroll
slow
fast
+/-
esc
set tempo
stop
Help us to improve Ultimate-Guitar.com Take our survey!
×
Pa mi suena asi mejor =) pense q era de los panchos pero a sido del trio..

e---------8-12-12^10--10------7-10-10^8-7-8------7-8-8^7----7-----
B------10-----------13------9------------------9---------10-------
G----9--------------------9------------------9--------------------
D-----------------------------------------------------------------
A-----------------------------------------------------------------
E-----------------------------------------------------------------


e------7-10-10^8-7--------------------
B----9-------------10----6/7-6---------
G---9-------------------------8-6-5----
D----------------------------------8---
A--------------------------------------
E--------------------------------------


                LAm  REm
Une tu voz a mi voz,
                     LAm
para gritar que triunfamos,
                     SOL
si el mundo ya se cansó,
                  FA
aquí seguimos los dos,
                     MI7
sin renunciar ni ocultarnos.
                        LAm  REm
Porqué ocultar nuestro amor,
                    LAm
sería tapar con un dedo,
                   SOL
la luz inmensa del sol,
                   FA
negar la gracia de Dios,
                       MI7
negar que lo blanco es negro.

              REm
Amor nada nos pudo separar,
                LAm
luchamos contra toda incomprensión,
                     MI7
del cuento ya no hay nada, que contar,
                   LAm
triunfamos con la fuerza del amor.
       REm
Une tu voz a mi voz,
                   LAm   (AQUI HACES UNA PAUSA CON UN SOLO RASGUEO)
para gritar que vencimos
                  LAm
y si es pecado el amor,
                        MI7
que el cielo de explicación,
                    LAm
porque es mandato divino.

e---------8-12-12^10--10------7-10-10^8-7-8------7-8-8^7----7-----
B------10-----------13------9------------------9---------10-------
G----9--------------------9------------------9--------------------
D-----------------------------------------------------------------
A-----------------------------------------------------------------
E-----------------------------------------------------------------


e------7-10-10^8-7--------------------
B----9-------------10----6/7-6---------
G---9-------------------------8-6-5----
D----------------------------------8---
A--------------------------------------
E--------------------------------------

              REm
Amor nada nos pudo separar,
                LAm
luchamos contra toda incomprensión,
                     MI7
del cuento ya no hay nada,nada que contar,
                   LAm
triunfamos con la fuerza del amor.
       REm
Une tu voz a mi voz,
                   LAm   (AQUI HACES UNA PAUSA CON UN SOLO RASGUEO)
para gritar que vencimos
                  LAm
y si es pecado el amor,
                        MI7
que el cielo de explicación,
                    LAm
porque es mandato divino.

e--------------------------------------
B----------------------6/7-6-----------
G----------------------------8-6-5-----
D----------------------------------8---
A--------------------------------------
E--------------------------------------

FIN..
Suggest correction
Give kudos to tab author, rate the tab!
1 2 3 4 5
comments
print report bad tab
guest
You may want to rate the tab now too:
select rating
Wanna post a correction for this tab? Suggest correction