Oops, an error
Loading. Please wait.

Ya Es Muy Tarde Tab

version 1
version 1

Whole song

3 views 1 this week
no commentswrite comment
1 2 3 4 5
3 more votes to show rating
add to favorites
launch autoscroll
font size
0
reset
how to read this tab
guitar tuner
×
Best way to learn
"Ya Es Muy Tarde"
Autoscroll
slow
fast
+/-
esc
set tempo
stop
ESTE ES EL INTRO:

e|-------11-12-14-15-15-15--12-15-12-14-14-14-|+
b|-12-14--------------------------------------|+
g|--------------------------------------------|+
D|--------------------------------------------|+
A|--------------------------------------------|+
E|--------------------------------------------|+

e|-10-14-10-12-12-12-9-12-9-10-10-10-|+
b|-----------------------------------|+
g|-----------------------------------|+
D|-----------------------------------|+
A|-----------------------------------|+
E|-----------------------------------|+

e|-------11-12-14-15-12--15-12-15-12-15-12-14-10-|+
b|-12-14-----------------------------------------|+
g|-----------------------------------------------|+
D|-----------------------------------------------|+
A|-----------------------------------------------|+
E|-----------------------------------------------|+

e|-14-10-14-10--14-10-12-9-12-9-12-9-12--9-10-|
b|--------------------------------------------|
g|--------------------------------------------|
D|--------------------------------------------|
A|--------------------------------------------|
E|--------------------------------------------|
Suggest correction
Give kudos to tab author, rate the tab!
1 2 3 4 5
comments
print report bad tab
guest
You may want to rate the tab now too:
select rating
Wanna post a correction for this tab? Suggest correction