Oops, an error
Loading. Please wait.

Ya Es Muy Tarde Tab

version 2
version 2

Whole song

23 views 1 this week
no commentswrite comment
1 2 3 4 5
3 more votes to show rating
add to favorites
launch autoscroll
font size
0
reset
how to read this tab
guitar tuner
×
Best way to learn
"Ya Es Muy Tarde"
Autoscroll
slow
fast
+/-
esc
set tempo
stop
 Hola amigos/as, aqui les mando otro requinto de su grupo
de boleros favorito ' los trio '... si por casualidad
no le entienden o tienen preguntas, dudas, o sugerencias
mandenme un mail.

1)---------------------
2)--12-10-9------------
3)----------12-10-9x3--
4)---------------------
5)---------------------
6)---------------------

1)--13-10-13-10-12x3--
2)--------------------
3)--------------------
4)--------------------
5)--------------------
6)--------------------

1)--12-9-12-9-11x3--
2)------------------
3)------------------
4)------------------
5)------------------
6)------------------

1)--11-8-11-8-9--
2)---------------
3)---------------
4)---------------
5)---------------
6)

1)-----------------
2)--12-10-9--------
3)----------12-10--
4)-----------------
5)-----------------
6)-----------------

1)--13-10-13-10-13-10-13-10--
2)---------------------------
3)---------------------------
4)---------------------------
5)---------------------------
6)---------------------------

1)--12-9-12-9-12-9-12-9--
2)-----------------------
3)-----------------------
4)-----------------------
5)-----------------------
6)-----------------------

1)--11-8-11-8-11-8-11-8-9--
2)-------------------------
3)-------------------------
4)-------------------------
5)-------------------------
6)-------------------------

Bueno espero le haigan entendido sino mandenme un mail.
Suggest correction
Give kudos to tab author, rate the tab!
1 2 3 4 5
comments
print report bad tab
guest
You may want to rate the tab now too:
select rating
Wanna post a correction for this tab? Suggest correction