Oops, an error
Loading. Please wait.

El Angel Bass

18 views 1 this week
no commentswrite comment
1 2 3 4 5
3 more votes to show rating
add to favorites
×
Save as Personal and add changes to this tab that will be seen only by you. Learn more ›
×
You can save this tab as Personal to edit and correct it or add notes. All changes will be seen only by you. Learn more »
save as personal
new!
launch autoscroll
font size
0
reset
guitar tuner
Autoscroll
slow
fast
+/-
esc
set tempo
stop
INTRO:

G|-------------|           
D|-------------|           
A|-5-5--3-2--0-|(x2)        
E|-------------|            
 
G|----------------|
D|-4-4--2----5555-|
A|--------5-3-----|
E|----------------|


ESTROFA 1:(Eso empezó aquella tarde.....)
G|---------------------|
D|---------------------|(x10)
A|--2-5--2-5--2-5--2-5-|
E|-3----3----3----3----|

G|----------------------------------|
D|------5-4-2---4-7---4-7---4-7--4-7|
A|--2-5-------5-----5-----5-----5---|
E|-3--------------------------------|

G|---------------------|
D|--2-5--2-5--2-5--2-5-|
A|-3----3----3----3----|
E|---------------------|

G|-----------------------------------------------------------|
D|-----------------------4-7--4-7--2-5-2-5-------------------|
A|--2-5--2-5--2-5--2-5--5----5----3---3-----2-5--2-5--5-5-5-5|
E|-3----3----3----3------------------------3----3------------|

G|---------------------|
D|---------------------|(x10)
A|--2-5--2-5--2-5--2-5-|
E|-3----3----3----3----|

G|----------------------------------|
D|------5-4-2---4-7---4-7---4-7--4-7|
A|--2-5-------5-----5-----5-----5---|
E|-3--------------------------------|

G|---------------------------------------------------|
D|--2-5--2-5--2-5--2-5-----------------------4-7--4-7|
A|-3----3----3----3-----2-5--2-5--2-5--2-5--5----5---|
E|---------------------3----3----3----3--------------|

G|---------------------------------------------------|
D|-2-5--2-5-----------------------4-7-4-7--2-5-------|
A|3----3-----2-5--2-5--2-5--2-5--5---5----3----3-2---|
E|----------3----3----3----3---------------------5-3-|

(Y ahora estoy aquí............)
G|-------------------------------------------|
D|-------------------------------------------|(x2)
A|----2-(3)-0-(3)---------(5)-0-(5)----------|
E|-3-5-----------(3)-0-(3)---------(3)-0-(3)-|

(Porque en el cielo no hay.....)
G|-----------------------------------------------------|
D|-------2-5--2-5--2-5--2-5----------------------------|
A|----2-3----3----3----3----3-3333---0-3--0-3--0-3--0-3|
E|-3-5------------------------------1----1----1----1---|

G|----------------------------------------------------|
D|-----------------------2-5--2-5--------2-5--2-5--2-5|
A|--2-5--2-5--2-5--2-5--3----3----------3----3----3---|
E|-3----3----3----3---------------3-3-3---------------|

G|-542--------------------------------------------------|
D|----53------------------------------------------------|
A|------53-3-3-3--0-3--0-3--0-3--0-3--2-5--2-5--2-5--2-5|
E|---------------1----1----1----1----3----3----3----3---|

G|------------------|
D|--2-5--2-5--------|
A|-3----3----3--(5)-|
E|------------------|

(Igual que en la ESTROFA 1)

EL FINAL ES ASI
G|----------------------|     |------|    |----------|
D|--2-5-----------------|(x2) |--2-5-|(x4)|----------|
A|-3----3-2-0--2-5--2-5-|     |-3----|    |-(3)-3-3-3|
E|------------3----3----|     |------|    |----------|
------------------------------------------------------
Cualquier duda, sugerencia, consulta, pedido o insulto 
haganmelo llegar a: lisandrolandeta@
Suggest correction
Give kudos to tab author, rate the tab!
1 2 3 4 5
comments
print report bad tab
guest
Wanna post a correction for this tab? Suggest correction