Oops, an error
Loading. Please wait.

Tomate Un Vino Y Olvidate Chords

31 views 3 this week
no commentswrite comment
1 2 3 4 5
3 more votes to show rating
add to favorites
launch autoscroll
font size
0
reset
transpose
0
reset
display chords
guitar tuner
×
Best way to learn
"Tomate Un Vino Y Olvidate"
Autoscroll
slow
fast
+/-
esc
set tempo
stop
Este es el solo del tema de los tulipanes, espero que 
les guste.

CUALQUIER DUDA QUE TENGAN O SI QUIEREN PEDIRME ALGUNA 
TABLATURA PUEDEN HACERLO A JMTUCU@
SALUDOS A TODOS, AGUANTE SOMISA !!!
JUAN MANUEL, SAN NICOLAS (BS AS, ARGENTINA)
ICQ: 72672910 (TUCU)

|--------------------------------------------------------|
|--------------------------------------------------------|
|-14----14----14----15-15-15-15-15-17-17-17-17-17-15-14--|
|----15----15----15--------------------------------------|
|--------------------------------------------------------|
|--------------------------------------------------------|


|---------------------------------------------------|
|---------------------------------------------------|
|-14----14----14----15-15-15-15-15------------------|
|----15----15----15----------------17-17-17-14-15/--|
|---------------------------------------------------|
|---------------------------------------------------|
Suggest correction
Give kudos to tab author, rate the tab!
1 2 3 4 5
comments
print report bad tab
guest
You may want to rate the tab now too:
select rating
Wanna post a correction for this tab? Suggest correction