Oops, an error
Loading. Please wait.

Te Necesito Chords

55 views 1 this week
no commentswrite comment
1 2 3 4 5
3 more votes to show rating
add to favorites
×
Save as Personal and add changes to this tab that will be seen only by you. Learn more ›
×
You can save this tab as Personal to edit and correct it or add notes. All changes will be seen only by you. Learn more »
save as personal
new!
launch autoscroll
font size
0
reset
transpose
0
reset
simplify chords
display chords
guitar tuner
Autoscroll
slow
fast
+/-
esc
set tempo
stop
Strumming
There is no strumming pattern for this song yet. and get +5 IQ
Hola.
Esta es para los que disfrutan con la música tropical.
Espero les guste y la toquen con sabor.


Tonalidad  :  Cm
Escala     :  ( C D Eb F G Ab Bb )
Modulación :  C


Intro de las trompetas.


e ---10--8----------------------------------------[
b ---------8----11--9---------9--8----------------[
g -----------8---------10--7--------7--7--10--8---[
d ------------------------------------------------[
a ------------------------------------------------[
E ------------------------------------------------[

e------------------------                --------------------------[
b--8--8--8-8----------8--                --8--8--8-8---------------[
g-------------8-8/10----- (bis 3 veces)  -------------7--8-8--8-8--[
d------------------------                --------------------------[
a------------------------                --------------------------[
E------------------------                --------------------------[


    Cm                    Gm
En las noches cuando me acuesto
                       Cm
buscando conciliar el sueño
      Ab                Cm
te adueñas de mi pensamiento
Fm                   Gm
invadida por tus recuerdos
    Cm                  Gm
Temprano cuando me despierto
                     Cm
comienza a nacer el día
      Ab              Gm
tu sigues en mi pensamiento
   Fm                   Gm   Cm
y sigues con migo a mi vida


Coro

C  C7   Ab
Te necesito
Bb                 Cm
como necesito del aire
  Ab               Fm
necesito de tu presencia
   Gm            Cm
necesito de tu calor

C  C7   Ab
Te necesito
   Bb                   Cm
porque sin ti yo no soy nadie
   Ab               Fm
necesito que lo comprendas
   Gm
necesito de tu calor
Cm              Gm
Te, te , te necesito ( bis 4 )

(Se repite todo hasta el final)


Espero les halla gustado y ojalá la disfruten que para eso es.
A gozar con la música colombiana.
Suggest correction
Give kudos to tab author, rate the tab!
1 2 3 4 5
comments
print report bad tab
guest
Wanna post a correction for this tab? Suggest correction