Oops, an error
Loading. Please wait.

Balada De Tony Y Douglas Tab

17 views 1 this week
no commentswrite comment
1 2 3 4 5
3 more votes to show rating
add to favorites
launch autoscroll
font size
0
reset
how to read this tab
guitar tuner
×
Best way to learn
"Balada De Tony Y Douglas"
Autoscroll
slow
fast
+/-
esc
set tempo
stop
6--0---0-
5--------   Intro pre-melodica
4--------
3-1--1---

RIFF 1

6--0-------------0--------/
5-------------------------/
4---2-------------2-------/
3----1-4-1-1-0-1---1-4-1--/

6--0-------------0--------/
5-------------------------/
4---2-----------------2---/
3----1-4-1-1-0-1--0-1-1---/
                TODO X 2

RIFF 2

6--0-0-0-0-5-3-0-0-0-0-5-3--------5-3-0-0-0-0--
5--2-2-2-2-----2-2-2-2----0-0-0-0-----2-2-2-2--
4-------------------------2-2-2-2--------------
3----------------------------------------------

6--3-5---------3-5-0-0-0-0-0-/-----------
5------2-2--0-0----2-2-2-2-2-/--- FA ----
4------4-4--2-2--------------/-----------
3------4-4--2-2--------------/-----------


SOL     LA           MI
En la maquina del tiempo
SOL     LA           MI
Tony y Douglas viajaran
SOL        LA    LA#  LA
Douglas tony viajaraaaan
No regresaran

Vuelve al RIFF 1

SOL     LA           MI
En la maquina del tiempo
SOL     LA           MI
Tony y Douglas viajaran
SOL        LA    LA#  LA
Douglas tony viajaraaaan
No regresaran

Heeee hehe! Heeee hehe!
Hee hee! Hee hee!
He! He!
He! He! He! He! He! He!

3------------------2-----
2-------0-3--3-0-2---0--
1--0--0------------------
            Pentecostales! Jesús los llama
3------------------2-----
2-------0-3--3-0-2---0---
1--0--0------------------
           Oscuros negativistas!

SOL     LA           MI
En la maquina del tiempo
SOL     LA           MI
Tony y Douglas viajaran
SOL        LA    LA#  LA
Douglas tony viajaraaaan
No regresaran

Vuelve al RIFF 1

Con este tema abre el disco LA MAQUINA DEL TIEMPO,
Un tema distinto, extraño y divertido,
SALUDOS, JUANI BRACHETTI
Suggest correction
Give kudos to tab author, rate the tab!
1 2 3 4 5
comments
print report bad tab
guest
You may want to rate the tab now too:
select rating
Wanna post a correction for this tab? Suggest correction