Oops, an error
Loading. Please wait.

El Estudiante Tab

version 2
version 2

Whole song

42 views 1 this week
no commentswrite comment
1 2 3 4 5
3 more votes to show rating
add to favorites
launch autoscroll
font size
0
reset
how to read this tab
guitar tuner
×
Best way to learn
"El Estudiante"
Autoscroll
slow
fast
+/-
esc
set tempo
stop
intro: LA

e---------------------------------/
b---------------------------------/
g----------------------5-6-5-6----/  (cuatro veces)
d--7---5-7---5-7---5-7------------/
a----7-----7-----7----------------/
E---------------------------------/

estrofas: LA - MI- MI7-LA-LA7-RE-LA-MI-(dos veces)

e-----------------------/------------------------/
b-----------------------/------------------------/
g---------------------6~/--6666---6-7-6----------/
d--7777--7999--7999-79--/-------9----7-7-9-7-6-7~/
a-----------------------/------------------------/
E-----------------------/------------------------/

estribillos: LA-MI-MI7-LA-LA7-RE-LA-MI-LA

e----------------------/--------------------------/
b----------------------/--------------------------/
g--------6-------------/------67------------------/
d--7~-779-7--7777-7-6~-/-9~-99--9-9999-10-10-11~~~/
a----------------9-----/--------------------------/
E----------------------/--------------------------/

e----------------------/------------/-------------/
b----------------------/-7----------/-976---------/
g--------6--------67~--/---976------/-----976-----/
d--7~-779-7-7777-9-----/-------976--/---------9---/
a----------------------/------------/-------------/
E----------------------/------------/-------------/

e--------------------/
b--------------------/
g-76-----------------/
d----976------6--7~~~/
a--------9-7-9-7-----/
E--------------------/


PD: ESTA TABLATURA HACE LO MISMO QUE EL CANTANTE,ES UN FRASEO
QUE SE PUEDE HACER TANTO EN LA GUITARRA COMO EN EL BAJO.

                     AGUANTE CORDOBA Y DON BOSCO!!!
Suggest correction
Give kudos to tab author, rate the tab!
1 2 3 4 5
comments
print report bad tab
guest
You may want to rate the tab now too:
select rating
Wanna post a correction for this tab? Suggest correction