Oops, an error
Loading. Please wait.

Jugando Hulla Hulla Tab

8 views 1 this week
no commentswrite comment
1 2 3 4 5
3 more votes to show rating
add to favorites
launch autoscroll
font size
0
reset
how to read this tab
guitar tuner
×
Best way to learn
"Jugando Hulla Hulla"
Autoscroll
slow
fast
+/-
esc
set tempo
stop
Intro 1 guitarra:

6--0-0-2----------/------------/-0-0-2---------
5-------0-2-4-----/------4-2-0-/------0-2-4----
4-------------2-0-/-0-0-0------/-----------2-0-

6--0-0-2----------/------------/-0-0-2---------/
5-------0-2-4-----/------4-2-0-/------0-2-4----/
4-------------2-0-/-0-0-0------/-----------2-0-/

Intro 2 saxo+ guit:

6-------------------------------
5----------------0-0--2-2-2-2---
4--2-2-2-2--0-0-----------------

6-------------------------------
5----------------0-0--2-2-2-2---
4--2-2-2-2--0-0-----------------

Y aca arranca el tema?

Y cierra con la Intro numero 1 de la guitarra.

Bueno esto es el punteo de Jugando Hulla Hulla.
Espero que les haya gustado. Saludos!!! Juani.
Dudas o sugerencias: en Facebook: JUANI BRACHETTI
O e-mail a: 
Suggest correction
Give kudos to tab author, rate the tab!
1 2 3 4 5
comments
print report bad tab
guest
You may want to rate the tab now too:
select rating
Wanna post a correction for this tab? Suggest correction