Oops, an error
Loading. Please wait.

Rockabilly De Los Narcisos Tab

178 views 1 this week
no commentswrite comment
1 2 3 4 5
3 more votes to show rating
add to favorites
launch autoscroll
font size
0
reset
how to read this tab
guitar tuner
×
Best way to learn
"Rockabilly De Los Narcisos"
Autoscroll
slow
fast
+/-
esc
set tempo
stop
Para tocar bien este tema, hay tener practica,
sino se cansa mucho la mano...

ahi va:

intro:

  A
e------------------------------------------
b------------------------------------------
G------------------------------------------
D-------------5-5-6-6-5-5----------7-7--7-7
A----4-4-7-7--------------7--4-----7-7--7-7
E-5-5------------------------------5-5--5-5

e------------------------------------------
b------------------------------------------
G------------------------------------------
D-------------5-5-6-6-5-5----------7-7--7-7
A----4-4-7-7--------------7--4-----7-7--7-7
E-5-5------------------------------5-5--5-5


  D
e------------------------------------------
b------------------------------------------
G-------------5-5-6-6-5-5----------7-7--7-7
D----4-4-7-7--------------7--4-----7-7--7-7
A-5-5------------------------------5-5--5-5
E------------------------------------------

  A
e------------------------------------------
b------------------------------------------
G------------------------------------------
D-------------5-5-6-6-5-5----------7-7--7-7
A----4-4-7-7--------------7--4-----7-7--7-7
E-5-5------------------------------5-5--5-5

  E
e-------------------------------
b-------------------------------
G--------------6-6-5-5-6-6------
D-----6-6-9-9--------------9-6--
A-7-7---------------------------
E-------------------------------

 D*
e-------------------------------
b-------------------------------
G-------------5-5-6-6-5-5-------
D----4-4-7-7--------------7--4--
A-5-5---------------------------
E-------------------------------

  A
e------------------------------------------
b------------------------------------------
G------------------------------------------
D-------------5-5-6-6-5-5----------7-7--7-7
A----4-4-7-7--------------7--4-----7-7--7-7
E-5-5------------------------------5-5--5-5


A
Hola mis amigos
nosotros somos Los Twist
A
les voy a presentar cinco personas maravillosas
D
no consumimos alcohol ni tomamos drogas
A
porque somos católicos, apostólicos y romanos
E
pónganse contentos, ya llego el momento
D                                          A
cojan a su chica y comiencen a bailar el twist


Dominamos a la perfección cualquier instrumento
además somos jóvenes y nos vestimos muy bien
jamas tuvimos problemas con la policía
porque todos tenemos una línea de conducta
nadamos en dinero nacional y extranjero
estamos convencidos de que somos lo mejor que hay

Vamos todos a bailar Los Twist (Twist, Twist, Twist,Twist)
Vamos todos a bailar el Twist (boogie, boogie, boogie, boogie)

Tiren las pastillas, muevan la rodilla
vayan todosrapido a comprar los discos de Los Twist


BUENO, TIENEN QUE ESCUCHAR EL RITMO DEL TEMA PARA SACARLO BIEN
IGUALMENTE ES FACIL
NOS VEMOSSSSSS
Suggest correction
Give kudos to tab author, rate the tab!
1 2 3 4 5
comments
print report bad tab
guest
You may want to rate the tab now too:
select rating
Wanna post a correction for this tab? Suggest correction