Oops, an error
Loading. Please wait.

Sangre Azul Chords

19 views 1 this week
no commentswrite comment
1 2 3 4 5
3 more votes to show rating
add to favorites
launch autoscroll
font size
0
reset
transpose
0
reset
display chords
guitar tuner
×
Best way to learn
"Sangre Azul"
Autoscroll
slow
fast
+/-
esc
set tempo
stop
INTRO: (acomp: Si/Mi/Si/La-Si/Mi//

4----------------------------------------
3------------------11---------------11-9-
2----------12-10-9----------12-10-9------
1--12-11-9-------------11-9--------------

4----------------------------------------
3----------------------------------------
2----------12-10-12------10-12--12-12----
1--12-11-9----------11--9-----11-----12--

5---------------7----
4--------9-7----9----
3--9-8-6--------9----

E                       B
Ejemplares de una raza soberana
A
Su bandera es la justicia
    E
Su virtud es el perdón
E                           B
Desempeñan sus tareas sin desmayos
Persiguiendo al delincuente
       E
Y al ladrón

Orgullosos de su estirpe de varones
Alla van con pecho erguido
Alla van sin vacilar
Son guerreros en el campo de batallas
Y educados en el seno del hogar
6-------------0--
5------4-2-0--2--
4--2-1--------2--
3-------------1--

B
Sangre azul
                           E
Sangre azul del color celestial
E        B
En las venas
                        E
En las venas del varón federal

Sangre azul
Sangre azul del gran hombre animal
Es el gallo
Es el gallo de escudo oficial
6-------------0--
5------4-2-0--2--
4--2-1--------2--
3-------------1--

Valerosos y gentiles caballeros
Cuando un niño les sonríe
Lo acarician con amor
Pero si ese niño tiene antecedentes
Las caricias se la dan en la prisión

Veinticuatro horas al día todo el año
Es el lema que defiende
esta noble institución
muchas gracias por los servicios prestados
les decimos al cantar esta canción

B
Sangre azul
                           E
Sangre azul del color celestial
E        B
En las venas
                        E
En las venas del varón federal

Sangre azul
Sangre azul del gran hombre animal
Es el gallo
Es el gallo de escudo oficial
6-------------0--
5------4-2-0--2--
4--2-1--------2--
3-------------1--

Cierra con la intro

Recuerden que la pequeña tablatura al final de las estrofas es esa
pequeña escala descendida que hacemos sobre el acorde de Mi, en el
tema orig, lo hace el sax.
Suerte, saludos!!! JUANI BRACHETTI
Suggest correction
Give kudos to tab author, rate the tab!
1 2 3 4 5
comments
print report bad tab
guest
You may want to rate the tab now too:
select rating
Wanna post a correction for this tab? Suggest correction