Oops, an error
Loading. Please wait.

No Disparen! tab

12 views 1 this week
no commentswrite comment
1 2 3 4 5
3 more votes to show rating
add to favorites
×
Save as Personal and add changes to this tab that will be seen only by you. Learn more ›
×
You can save this tab as Personal to edit and correct it or add notes. All changes will be seen only by you. Learn more »
launch autoscroll
font size
0
reset
how to read this tab
guitar tuner
edit
Autoscroll
slow
fast
+/-
esc
set tempo
stop
La cancion no esta completa ya que no la saque entera pero esto puede serles util.

Este riff se repite a lo largo de toda la cancion. Repitanlo cuantas veces sea 
necesario y escuchen la cinta para fijarse el tiempo.

PARTE 1

E--------------------------------------------
B--------------------------------------------
G--------------------------------------------
D-------------2--4---------------------------
A-4--4--2--4--0--2--4--4--2--4---------------
E-2--2--0--2--------2--2--0--2---------------

 F# F#  E F#  A B  F# F#  E  F# 

Arpegio que debe realizarse mientras empieza la letra.
Se debe tocar con la mano derecha tapando un poco las 
cuerdas para que de la sensacion de un efecto percusivo. 
Este arpegio se repite dos veces pero la segunda vez el 
ultimo arpegio que se hace en F# se omite y se pasa a 
LA PARTE 3.

PARTE 2

E----------------------------------------------
B----------------------------------------------
G--------------------------6-6-----------4-4---
D----------4-4---------6-6-----6-----4-4-----4-
A-----4-4------4-4-4-4-----------2-2-----------
E-2-2------------------------------------------
  F#...............C#...........B.............

E----------------------------------------------
B----------------------------------------------
G----------------------------------------------
D----------4-4---------------------------------
A-----4-4------4-------------------------------
E-2-2------------------------------------------
 F#.............

PARTE 3 
parte 'a'                           parte 'b'

E---------------------------------  E------------
B---------------------------------  B------------
G---------------------------------  G------------
D------------------6-6-6-6-6-6-6-6  D-4----------
E-4-4-4-4-4-4-4-4--4-4-4-4-4-4-4-4  A-2--2-------
A-2-2-2-2-2-2-2-2-----------------  E----0-------
  F#.............  C#.............    B  E  

[La parte 'a' se repite 3 veces y media, ya que no se toca 
el C# que continua y en cambio se toca el B y el E de la parte 'b']

            
            
Suggest correction
Creating personal tab
Creating personal tab
You can edit any tab online and save it as your Personal.

You can edit, replace or remove any tab part or add personal notes – all changes will be seen only by you.

Personal tabs can be accessed anytime from any device, even offline.
Learn more »
Give kudos to tab author, rate the tab!
1 2 3 4 5
comments
print report bad tab
guest
Wanna post a correction for this tab? Suggest correction