Oops, an error
Loading. Please wait.

Aburrido, Divertido tab

64 views 1 this week
no commentswrite comment
1 2 3 4 5
3 more votes to show rating
add to favorites
×
Save as Personal and add changes to this tab that will be seen only by you. Learn more ›
×
You can save this tab as Personal to edit and correct it or add notes. All changes will be seen only by you. Learn more »
launch autoscroll
font size
0
reset
how to read this tab
guitar tuner
edit
Autoscroll
slow
fast
+/-
esc
set tempo
stop
INTRO: MI - FA# - LA - SI  X2


  1------------------------------------------------------------------
  2------------------9-9--7-7---------7-7----------------------------
  3--9-9-6-6-----6-6----------9-9-6-6------9-9-7-7------------------- X2
  4----------9-9-----------------------------------9-9--7-7-7-9-9-9--
  5------------------------------------------------------------------
  6------------------------------------------------------------------

    MI
  1------------------------------------------------------------------
  2------------------------------------------------------------------
  3--9-9-6-6-----6-6-9-9-6-6-----6-6-9-9-6-6-----6-6-9-9-6-6----6-6--
  4----------9-9-------------9-9-------------9-9-------------9-9-----
  5------------------------------------------------------------------
  6------------------------------------------------------------------

MI                          FA#  LA SI
Sucias calles para sucios sueños
MI                               FA#     LA     SI
Llenas de comercios con nada en stock
                                       1----------------
                                       2--5------7------
                                       3--7(9)--9(11)-

MI                            FA#    LA SI
Pubs de a miles videos en el centro
MI                          FA#         LA     SI
Pequeña cultura para preservacion
                                      1------------------
                                      2--5------7--------
                                      3--7(9)--9(11)---


      MI          FA#
Yo no se no se no se no se
   LA                  SI
Si esto es aburrido si esto es divertido
      MI          FA#
Yo no se no se no se no se
   LA                  SI
Si esto es aburrido si esto es divertido
   MI    FA#  LA SI
No se,no se
   MI    FA# LA SI
No se,oh no


MI  X2

MI                         FA#   LA SI
Todos estan esperando soluciones
MI                          FA#    LA     SI
NAdie tiene nada nuevo que decir
                                 1------------------
                                 2--5------7--------
                                 3--7(9)--9(11)---

MI                          FA#   LA SI
En verano se cotiza tu bronceado
MI                                      FA#     LA     SI
Yo navego mis sueños con un poco mas de gin
                                              1-----------------
                                              2--5------7-------
                                              3--7(9)--9(11)--


   MI          FA#
Yo no se no se no se no se
   LA                  SI
Si esto es aburrido si esto es divertido
      MI          FA#
Yo no se no se no se no se
    LA                  SI
Si esto es aburrido si esto es divertido
MI    FA#   LA SI
no se,no se
MI       FA#   LA SI
no se,oh no
MI
STUKAAAAA


SOLO:MI FA# LA SI X2

        MI                FA#     LA     SI  (RITMO DE INTRO)
     1---------------------------------------
     2--------------------9-9-7---7-9-7------
     3--9-9-6---6-9-6---6-------9-------9----   X2
     4--------9-------9-------------------9--
     5---------------------------------------
     6---------------------------------------

        MI      FA#       LA   SI
     1--------------------------------
     2--------------------10----------
     3--9-9-----9-9-----9----9--------   X2
     4------9-9-----9-9--------9-9----
     5--------------------------------
     6--------------------------------

MI                   FA#
Veo sucias calles tenemos sucios sueños
LA                       SI
Millones de seres de polietileno
      MI                   FA#
Los semaforos ordenan,el telefono suena
LA                     SI
llena de basura la ciudad se renueva
    MI                    FA#
Automoviles de plastico,Sirena sonando
   LA                   SI
En los supermercados alimentos envasados
    MI                         FA#
Los viejos que se quejan los chicos a la mierda
   LA                SI
Felices policias,se hacen una orgia


        MI          FA#
Y yo no se no se no se no se
   LA                  SI
Si esto es aburrido si esto es divertido
      MI          FA#
Yo no se no se no se no se
    LA                  SI
Si esto es aburrido si esto es divertido
MI
no se


MI FA# LA SI X2


    MI                 FA#
Aburrido divertido aburrido divertido
    LA             SI
Aburrido divertido
MI                 FA#
Aburrido divertido aburrido divertido
    LA             SI
Aburrido divertido
MI                 FA#
Aburrido divertido aburrido divertido
    LA             SI
Aburrido divertido


MI FA# LA SI MI
Suggest correction
Creating personal tab
Creating personal tab
You can edit any tab online and save it as your Personal.

You can edit, replace or remove any tab part or add personal notes – all changes will be seen only by you.

Personal tabs can be accessed anytime from any device, even offline.
Learn more »
Give kudos to tab author, rate the tab!
1 2 3 4 5
comments
print report bad tab
guest
Wanna post a correction for this tab? Suggest correction