Oops, an error
Loading. Please wait.

Chicas De La Calle tab

73 views 1 this week
no commentswrite comment
1 2 3 4 5
3 more votes to show rating
add to favorites
×
Save as Personal and add changes to this tab that will be seen only by you. Learn more ›
×
You can save this tab as Personal to edit and correct it or add notes. All changes will be seen only by you. Learn more »
launch autoscroll
font size
0
reset
how to read this tab
guitar tuner
edit
Autoscroll
slow
fast
+/-
esc
set tempo
stop
INTRO: E

          1-------------------
          2-------------------
          3-------------------
          4--2-0--------------  X4
          5------4-0-1-2-2-2--
          6-------------------


E             A          E               E D# C#
Ella esta tan sola como mucha gente esta
C#    B           A*
pero no es su problema, es su realidad
E            C#  B
en su cuerpo el vicio y la maldad
         A
en su espalda, la mediocridad.

            E
SOLO 1:  1----------------------
         2--5-2-0-2-5-2-0-0-2--- X2
         3----------------------
         4----------------------
         5----------------------
         6----------------------


E           A          E           E - D#m C#
Ella ama a todos pero no es verdad
C#     B        A*
su trabajo da dinero, no le importa más
E         C#        B
y entre sueños de drogas y de alcohol
       A                            E   E - D# - C#
todo ira mejor, como en la televisión.


C#  B          A
Ohh Ohh en la calle esta, su seguridad
C#  B          A
ohh Ohh en la calle esta, su felicidad
C#  B          A
ohh Ohh en la calle esta, su posibilidad.


            E
SOLO 2:  1------------------------------------
         2--5-2-0-2-5-2-0-0-2--5-2-0-2-5------
         3------------------------------------
         4------------------------------------
         5------------------------------------
         6------------------------------------

SOLO 2:
                    C# - B - A - E
         1---------------------------------------
         2---------------------------------------
         3----------6-9-6------------------------
         4-----6-9--------9---6n4---6n4---6n4----  X4
         5---7--------------------7-----7-----7--
         6---------------------------------------


E - D# - C#


C#    B           A
Sólo busco a esa chica, que en la calle está.


SOLO 3:   E
       1--------------------
       2--5-2-0-2-7**-5-5-2-- X4    7** = ESTIRAR LA CUERDA
       3--------------------
       4--------------------
       5--------------------
       6--------------------

E             A          E                 E - D# - C#
Ella ya no espera nada nuevo al despertar
C#     B          A*
porque su desesperanza, esta mas allá
E         C#       B
de hamburguesas y Coca Colas
      A                          E    E - D# - C#
todo sigue igual, exactamente igual.


C#  B          A
Ohh Ohh en la calle esta, su seguridad
C#  B          A
Ohh Ohh en la calle esta, su felicidad
C#  B          A
Ohh Ohh en la calle esta, su posibilidad.


            E
SOLO 2:  1------------------------------------
         2--5-2-0-2-5-2-0-0-2--5-2-0-2-5------
         3------------------------------------
         4------------------------------------
         5------------------------------------
         6------------------------------------


Recuerda...


SOLO 4: C# - B - A  X4   E - D# - C#


C#    B           A                          E
Sólo busco a esa chica, que en la calle esta.


A*: 1---------------------------
    2---------------------------
    3---------------------------
    4---------------------------
    5--00-44-55-77-00-44-55-77--
    6---------------------------

            
            
Suggest correction
Creating personal tab
Creating personal tab
You can edit any tab online and save it as your Personal.

You can edit, replace or remove any tab part or add personal notes – all changes will be seen only by you.

Personal tabs can be accessed anytime from any device, even offline.
Learn more »
Give kudos to tab author, rate the tab!
1 2 3 4 5
comments
print report bad tab
guest
Wanna post a correction for this tab? Suggest correction