Oops, an error
Loading. Please wait.

Por 1980 Y Tantos tab

49 views 1 this week
no commentswrite comment
1 2 3 4 5
3 more votes to show rating
add to favorites
×
Save as Personal and add changes to this tab that will be seen only by you. Learn more ›
×
You can save this tab as Personal to edit and correct it or add notes. All changes will be seen only by you. Learn more »
launch autoscroll
font size
0
reset
how to read this tab
guitar tuner
edit
Autoscroll
slow
fast
+/-
esc
set tempo
stop
Intro: LA - DO# - RE - MI - RE  X2   LA

       LA - DO# - RE - MI
                       1-------------
                       2-------------
                       3-------------
                       4-------------
                       5--9-7---7-9--
                       6------9------

      LA       DO#    RE           MI
   1-------------------9---------9----------
   2--10---10--12---12---10---10---12---12--
   3-----9--------9---------9---------9-----  X2
   4----------------------------------------
   5----------------------------------------
   6----------------------------------------


LA       DO#
Mil ojos nos vigilan
RE         MI
detras de una pared
LA         DO#
Un hombre, una mujer
RE          MI
no son dos, y no son tres

LA      DO#
Estamos habitando
RE        MI
un mundo impersonal
LA        DO#
Y cuando hay trabajo
          RE
si es que no lo entendemos
     MI
no es nuestro lugar


RE             LA     FA# MI RE
Hare lo que quiera

RE             LA     FA# MI RE
Hare lo que quiera

RE             LA     FA# MI RE
Hare lo que quiera

RE              MI
y lo hare muy bien


1-----------------------
2-----------------------
3-----------------------
4-----------------------
5--7-7--5-5--4-4--2-2---
6-----------------------

LA       RE#
Estamos construyendo
RE              MI
un mundo nuevo, un mundo mejor
LA                  DO#
en el cual no se lo que es un amigo
RE                   MI
y mucho menos lo que es el amor
LA          DO#
Fui echo prisionero
RE           MI
en la carcel del horror
LA         DO#
ya amo al gran hermano
RE              MI
como tambien lo amas vos


RE             LA     FA# MI RE
Hare lo que quiera
RE             LA     FA# MI RE
Hare lo que quiera
RE             LA     FA# MI RE
Hare lo que quiera
RE             MI
y lo hare muy bien


LA - MI/SOL# - FA# - RE - MI  X4  LA


SI        DO#           RE
La guerra es la paz, el odio el amor,
       MI
la justicia es ciega
       LA
si, es ciega.


LA - SOL# - FA#    LA - FA# - LA - FA#


  SI   DO#  RE      MI   LA      DO#    RE           MI
1----------------------------------------9---------9----------
2------------5---5-7-5-9-10---10-12---12---10---10---12---12--
3--7-6-4-6-7---7------------9-------9---------9---------9-----
4-------------------------------------------------------------
5-------------------------------------------------------------
6-------------------------------------------------------------

   LA      DO#    RE           MI        LA DO# RE MI  LA DO# RE MI
1------------------9---------9-------------------------------------
2--10---10-12---12---10---10---12---12---10--9---------10--9-------
3-----9-------9---------9---------9-------------11-9----------11-9-
4------------------------------------------------------------------
5------------------------------------------------------------------
6------------------------------------------------------------------


LA              DO#
No queremos acabarnos
                  RE
no queremos entregarnos
             MI
pero nos dá igual.
LA              DO#
No queremos acabarnos
                  RE
no queremos entregarnos
             MI
pero nos dá igual.


RE             LA     FA# MI RE
Hare lo que quiera
RE             LA     FA# MI RE
Hare lo que quiera
RE             LA     FA# MI RE
Hare lo que quiera
RE             MI
y lo hare muy bien


LA


MI/SOL# = 1----------
          2----------
          3----------
          4--14------
          5--11------
          6----------

            
            
Suggest correction
Creating personal tab
Creating personal tab
You can edit any tab online and save it as your Personal.

You can edit, replace or remove any tab part or add personal notes – all changes will be seen only by you.

Personal tabs can be accessed anytime from any device, even offline.
Learn more »
Give kudos to tab author, rate the tab!
1 2 3 4 5
comments
print report bad tab
guest
Wanna post a correction for this tab? Suggest correction