Oops, an error
Loading. Please wait.

Merceditas tab

version 2
version 2

Whole song

262 views 1 this week
no commentswrite comment
1 2 3 4 5
3 more votes to show rating
add to favorites
×
Save as Personal and add changes to this tab that will be seen only by you. Learn more ›
×
You can save this tab as Personal to edit and correct it or add notes. All changes will be seen only by you. Learn more »
launch autoscroll
font size
0
reset
how to read this tab
guitar tuner
edit
Autoscroll
slow
fast
+/-
esc
set tempo
stop
Ahí le va una de mis canciones favoritas.


1---------5--10---8--6---8--6- --8--6---8--10--6--5--6--5--6-
2-----6------11--10--8--10--8- -10--8--10--11--8--6--8--6--8-
3--7-------------------------- ------------------------------
4
5
6

1-5--6---8--5--3--5--3--5--3--6--5- --------------------
2-6--8--10--6--5--6--5--6--5------- 8--6--5-------------
3---------------------------------- --------6--7--7--7--
4
5
6


De los mismos de siempre...

A7                 Dm
Qué dulce encanto tienen,
      G7           C
Mis recuerdos Merceditas,
   F7         Bº
Aromada florecita,
     E7         Am
Amor mío de una vez.

La conocí en el campo,
Allá muy lejos una tarde,
Donde crecen los trigales,
Provincia de Santa Fe.

         Am            E7
Y así nació nuestro querer,
                       Am
Con ilusión, con mucha fe,
                       E7
Pero no sé por qué la flor,
                       Am
Se marchitó y muriendo fue.
        Am            E7
Y amándola con loco amor,
                    Am
Asi llegué a comprender,
                               E7
Lo que es querer, lo que es sufrir,
                    Am
Porque le dí mi corazón.


1---------5--10---8--6---8--6- --8--6---8--10--6--5--6--5--6-
2-----6------11--10--8--10--8- -10--8--10--11--8--6--8--6--8-
3--7-------------------------- ------------------------------
4
5
6

1-5--6---8--5--3--5--3--5--3--6--5- --------------------
2-6--8--10--6--5--6--5--6--5------- 8--6--5-------------
3---------------------------------- --------6--7--7--7--
4
5
6


Como una queja errante,
En la campiña va flotando,
El eco vago de mi canto,
Recordando aquel amor.

Pero a pesar del tiempo,
Transcurrido es Merceditas,
La leyenda que palpita,
En mi nostálgica canción.

         Am            E7
Y así nació nuestro querer,
                       Am
Con ilusión, con mucha fe,
                       E7
Pero no sé por qué la flor,
                       Am
Se marchitó y muriendo fue.
        Am            E7
Y amándola con loco amor,
                    Am
Asi llegué a comprender,
                               E7
Lo que es querer, lo que es sufrir,
                    Am
Porque le dí mi corazón.
Suggest correction
Creating personal tab
Creating personal tab
You can edit any tab online and save it as your Personal.

You can edit, replace or remove any tab part or add personal notes – all changes will be seen only by you.

Personal tabs can be accessed anytime from any device, even offline.
Learn more »
Give kudos to tab author, rate the tab!
1 2 3 4 5
comments
print report bad tab
guest
Wanna post a correction for this tab? Suggest correction