Oops, an error
Loading. Please wait.

Siempre Solo chords

71 views 1 this week
no commentswrite comment
1 2 3 4 5
3 more votes to show rating
add to favorites
×
Save as Personal and add changes to this tab that will be seen only by you. Learn more ›
×
You can save this tab as Personal to edit and correct it or add notes. All changes will be seen only by you. Learn more »
launch autoscroll
font size
0
reset
transpose
0
reset
simplify chords
display chords
guitar tuner
edit
Autoscroll
slow
fast
+/-
esc
set tempo
stop
Strumming
There is no strumming pattern for this song yet. and get +5 IQ
Hay varios cambios de bajos que los voy a detallar

En la primera estrofa

Bajo para cambio de lam a Do
-------------------6
-------0-1-2-------5
-------------------4
-------------------3
-------------------2
-------------------1

Bajo para cambio de Do a Fa
-------------------6
-------0-1-2-------5
-------------------4
-------------------3
-------------------2
-------------------1

En la tercera línea de la primera estrofa para el cambio de Do a Mi
-------------------6
---3---------------5
-----0-1-2---------4
-------------------3
-------------------2
-------------------1

Bajo para cambio de Lam a Fa
-------------------6
-------3-2-1-------5
-------------------4
-------------------3
-------------------2
-------------------1


                  Siempre solo
                 (Los visconti)
Am        E           Am
Sé que  mi pena no te importa,
C            G7        C
Se que de mi llanto tu te burlas,
F          G7        C
Se que para ti no valgo nada,
       E                      A
que no soy mas que un triste bohemio,
F         G7         C
Se que para ti no valgo nada,
        E                     A
que no soy mas que un triste bohemio.


En la segunda estrofa se usan las mismas notas que en la primera


Por eso quieres apartarme de tu lado,
Sin importarte alma de mi,
es mi destino seguir siempre muy solo,
y no te culpo quizás tengas razón,
es mi destino seguir siempre muy solo,
y no te culpo quizás tengas razón.


Estos son los bajos de la tercera estrofa


Bajo para cambio de Rem a Fa
-------------------6
-------3-2-1-------5
-------------------4
-------------------3
-------------------2
-------------------1

Bajo para cambio de Do a Mi
-------------------6
---3---------------5
-----0-1-2---------4
-------------------3
-------------------2
-------------------1


                Dm     A7         Dm
/Plazo doy a la vida, para que tu regreses,
             F      G7       C
Para que tu vuelvas como te conocí,
           E                 C
Y en un sollozo,  de triste llanto,
          E               Am
me des un beso,  por mi perdón./
(Se repite toda la canciòn.)

            
            
Suggest correction
Creating personal tab
Creating personal tab
You can edit any tab online and save it as your Personal.

You can edit, replace or remove any tab part or add personal notes – all changes will be seen only by you.

Personal tabs can be accessed anytime from any device, even offline.
Learn more »
Give kudos to tab author, rate the tab!
1 2 3 4 5
comments
print report bad tab
guest
Wanna post a correction for this tab? Suggest correction