Oops, an error
Loading. Please wait.

Veneno tab

73 views 1 this week
no commentswrite comment
1 2 3 4 5
3 more votes to show rating
add to favorites
×
Save as Personal and add changes to this tab that will be seen only by you. Learn more ›
×
You can save this tab as Personal to edit and correct it or add notes. All changes will be seen only by you. Learn more »
launch autoscroll
font size
0
reset
how to read this tab
guitar tuner
edit
Autoscroll
slow
fast
+/-
esc
set tempo
stop
------------7---------------------7----------
--9-8-9-----9-----------9-8-9-----7----------
--------9---9-----------------9---9----------
----------8-8-8-8-8-------------8-9-9-9-9----
------------7-7-7-7---------------8-8-8-8----
------------7-7-7-7---------------7-7-7-7----
               SI7                    MI
---------------------------------------------
---------------------------------------------
-9-8-9---------------------------------------
-------9-------------------------------------
---------8-8-------13-13-12-12-10-10-8-8-----
-----------7-------12-12-10-10--8--8-7-7-----
            RE7                      SOL  
---------------------------------------------
---------------------------------------------
---------------------------------------------
-----------------------------------7-9-------
-7^8-8-8-8---8-8^7-7--10-10-8-8-7-7-8-8------
-6^7-7-7-7---7-7^5-5---8--8-7-7-5-5----------
                 SI7                 MI
^este signo lo utilizo para arrastrar el sonido
de el traste. ejm..(7--8)
                   (6--7)


---------------------------------------------
---------------------------------------------
---------------------------------------------
---------------------------------------------
-10--10-10-10-10-10-10--8-8-8--8-8-8---------
--8---8--8--8-12-10--8--7-7-7-10-8-7---------
 RE7                    SOL 

---------------------------------------------
---------------------------------------------
---------------------------------------------
------8-8-9---9------------------------------
-7-7--7-7-8-----8----------------------------
-5-5--------------7--------------------------
 SI7       MI

    
Este tab, es un poco complicado, pero siempre 
es mejor escuchar la canciòn original.
Cualquier sugerencia a mi correo.
Espero que les guste.

                  Veneno(letra)
  MI            SI7                  MI
Cual reptil ponzoñoso, tu cuerpo se desliza
                  RE7                SOL
 Y tienen tus caricias él frió del terror
                 SI7                     MI
Es tu mirar tan triste que abecés causa pena 
 LA                 MI          SI7        MI 
Igual que el de la hiena que encuba una traición

Ah....
              SI7                   MI
Abecés me pregunto en que estaba pensando 
                   RE7               SOL
El día en que mis ojos se fijaron en ti
             SI7              MI
No perdono nunca el haberte mirado 
   LA                MI   SI7           MI
el mal que me ha causado solo culpable fui

CORO..
                    RE7                       SOL
Quien sabe en que momento el gran creador te hizo
                    SI7                MI
Quien sabe en que pensaba al darte corazón
             LA                            MI
/Yo puedo asegurarlo que su intención fue sana 
                SI7                   MI
Si tu naciste mala la culpa no es de Dios.

              SI7                MI
Engañas tu figura por ser tan diminuta 
                 RE7              SOL
Tu cara es la trampera donde tu corazón
              SI7               MI
Oculta sus maldades con toda simpatía
LA                MI
Pero tu alma es fría 
      SI7     MI
No tienes corazón

                SI7                    MI
Cual pequeño frasco de extracto que perfuma
               RE7              SOL
Tiene con tu estatura una similitud
               SI7                         MI
Pero también recuerda que un frasco en miniatura
LA             MI   SI7          MI
Trae mortal veneno así como eres tu.
CORO.. Mismas notas.
Quien sabe en que momento el gran creador te hizo

Quien sabe en que pensaba al darte corazón

/Yo puedo asegurarlo que su intención fue sana 

Si tu naciste mala la culpa no es de dios/.

Esta cancion se escucha muy bien a dos guitarras;
el ritmo en el rasgueo es vals. 
                       F.G

            
            
Suggest correction
Creating personal tab
Creating personal tab
You can edit any tab online and save it as your Personal.

You can edit, replace or remove any tab part or add personal notes – all changes will be seen only by you.

Personal tabs can be accessed anytime from any device, even offline.
Learn more »
Give kudos to tab author, rate the tab!
1 2 3 4 5
comments
print report bad tab
guest
Wanna post a correction for this tab? Suggest correction