Oops, an error
Loading. Please wait.

El Deseo De Evita tab

13 views 3 this week
no commentswrite comment
1 2 3 4 5
3 more votes to show rating
add to favorites
×
Save as Personal and add changes to this tab that will be seen only by you. Learn more ›
×
You can save this tab as Personal to edit and correct it or add notes. All changes will be seen only by you. Learn more »
launch autoscroll
font size
0
reset
how to read this tab
guitar tuner
edit
Autoscroll
slow
fast
+/-
esc
set tempo
stop
Intro:

e-|-------------------------------------------------7----------------------
B-|-------------------------------------------------7----------------------
G-|--7-7--11--7-6-7-7---7-6-7-6--4-4--4-6-4-6-7----------------------------
D-|------------------------------------------------------------------------
A-|--5-5--9---5-4-5-5---5-4-5-4--2-2--2-4-2-4-5----------------------------
E-|------------------------------------------------------------------------

e-|------------------------------------------------------------------------
B-|----------------------------------------------------------7--8--7-------
G-|--7-7--11--7-6-7-7---7-6-7-6--4-4--4-6-7-6-4-----6--7--9----------------
D-|------------------------------------------------------------------------
A-|--5-5--9---5-4-5-5---5-4-5-4--2-2--2-4-5-4-2----------------------------
E-|------------------------------------------------------------------------

F#


Manzanas agrias,
    Bm7
la novia en el altar
F#7
muy caliente.
Bbm Bm7
    Extraña herencia

resistencia pasiva,
     F#7                 F7 E
ni cobarde, ni valiente.

En un momento;
        F#7 Bm7 F#7         Bm7
cuando descansaba de su vuelo,
                E
una águila de plata,
   F#7       Bm7 F#7           Bm7     F#7 Bm7
veloz en el aire, como en el suelo;
                     Bm7
grito con primitiva voz

su canto inocente,
          F#7      F7 E
su canto salvaje,
           F#7           Bm7
le respondió un coro de fuego
   E         Bm7
y palmas de fuego
        F#7        Bm7 F#7 Bm7 A D
la abrazaron con amor feroz.

                   F#7
Así que el ave plateada
                      Bm7
voló esta vez con más fuerza.
                F#7     E(6ta): --0-2-3--
Borracha de placer.
G7      F#7           Bm7
  Por un rayo fue marcada
   E F#7 Bm7       A D
entonces dejó caer
             A
dos o tres plumas,
  F#7 A7 G7 F#7                    Bm7   F#7
tesoro             que ya tenía destino,
            Bm7 F#7 Bm7
un único destino.


(Intro)


El heredero:
 Bm7
duro como un toro,
 D
tonto como un toro,
 F#7                 E(6ta): --0-2-3--
rico como un toro.
G7         A          D
  Para la cena hay torito
E   F#7  Bm7      A D
y manzanas agrias
         D     D
en la cabeza,
         G7
en la corona.
  F#7       Bm7 F#7 Bm7
Plumas de plata.
Suggest correction
Creating personal tab
Creating personal tab
You can edit any tab online and save it as your Personal.

You can edit, replace or remove any tab part or add personal notes – all changes will be seen only by you.

Personal tabs can be accessed anytime from any device, even offline.
Learn more »
Give kudos to tab author, rate the tab!
1 2 3 4 5
comments
print report bad tab
guest
Wanna post a correction for this tab? Suggest correction