Oops, an error
Loading. Please wait.

Un Dolor chords

65 views 1 this week
no commentswrite comment
1 2 3 4 5
3 more votes to show rating
add to favorites
×
Save as Personal and add changes to this tab that will be seen only by you. Learn more ›
×
You can save this tab as Personal to edit and correct it or add notes. All changes will be seen only by you. Learn more »
launch autoscroll
font size
0
reset
transpose
0
reset
simplify chords
display chords
guitar tuner
edit
Autoscroll
slow
fast
+/-
esc
set tempo
stop
Strumming
There is no strumming pattern for this song yet. and get +5 IQ
Armoniza en Sol mayor

        D      C        G        D      C        G 
e-7-12-10--8-7-8--7-5-8-7--7-12-10--8-7-8--7-5-8-7-
B------------------------------------------------
G-7-12-11--9-7-9--7-5-9-7--7-12-11--9-7-9--7-5-9-7-
D--------------------------------------------------
A--------------------------------------------------
E--------------------------------------------------
      G      G7        C       G      D      G      C        G
e-7-5-3--7-5-3--5-7-10-8--10-8-7--8-7-5--7-5-3--5-7-8--8-7-5-3-
B--------------------------------------------------------------
G-7-5-4--7-5-4--5-7-11-9--11-9-7--9-7-5--7-5-4--5-7-9--9-7-5-4-
D--------------------------------------------------------------
A--------------------------------------------------------------
E--------------------------------------------------------------

      G
Un dolor
                  D
Me esta haciendo mal
                          G
Este amor, tristeza y soledad
              G7        C
Decepcion, y todo por amar

Por que yo
                        G
Te quiero con toda mi alma
                              D
Sin tu amor, he perdido la calma

Y no puedo evitar que un dolor
                     G
Me este haciendo llorar
     D         C              G    
Un dolor, un dolor en en el alma
       D          C            G
Cual puñal sin piedad se me clava
               G7           C
Un dolor, un dolor que me mata
     G         D         G
Un dolor, un dolor, un dolor

            
            
Suggest correction
Creating personal tab
Creating personal tab
You can edit any tab online and save it as your Personal.

You can edit, replace or remove any tab part or add personal notes – all changes will be seen only by you.

Personal tabs can be accessed anytime from any device, even offline.
Learn more »
Give kudos to tab author, rate the tab!
1 2 3 4 5
comments
print report bad tab
guest
Wanna post a correction for this tab? Suggest correction