Oops, an error
Loading. Please wait.

Un Dolor tab

71 views 1 this week
no commentswrite comment
1 2 3 4 5
3 more votes to show rating
add to favorites
×
Save as Personal and add changes to this tab that will be seen only by you. Learn more ›
×
You can save this tab as Personal to edit and correct it or add notes. All changes will be seen only by you. Learn more »
launch autoscroll
font size
0
reset
how to read this tab
guitar tuner
edit
Autoscroll
slow
fast
+/-
esc
set tempo
stop
bueno este es el intro de un dolor escuchen la musica y sabran acomodar
bien el rekinto


e.----------5----------10----------9-----------7----------
b.-----7---------12----------10------------8----------7----

e.-5---------7-
b.------8------


e.-------5----------3----------7---------5--
b.--7---------5-----------8---------7-------  x2todo


e.------5------------3-----------2-------
b.-7-----------5------------3------------ x2 bueno eso
                                          los hacen con
                          teclado pero hai esta con gitarra


e.-----5----------7----------8---esto tambien esconteclado
b.7---------8-----------10-------


e.----7-----7------3-------5---------------guitarra
b.-8-----8------5-------7------------------


e.---5-----5-------2-------3---------------
b.7-----7-------3------5-------------------


e.-----3------3-------0------2-------------
b.-5------5---------2-----3----------------

esta parte de abajo tambien se utiliza antes del
 coro y al final de la cancion

e.---2------3----5----7-----7-----5----3-
b.-3-----5-----7----8-----8------7----5--
esto escon tec.

     D
Un dolor
                  A
Me esta haciendo mal
                          D
Este amor, tristeza y soledad
              D7        G
Decepcion, y todo por amar

Por que yo
                        D
Te quiero con toda mi alma
                              A
Sin tu amor, he perdido la calma

Y no puedo evitar que un dolor
                     D
Me este haciendo llorar
     A         G              D
Un dolor, un dolor en en el alma
       A          G            D
Cual puñal sin piedad se me clava
               D7           G
Un dolor, un dolor que me mata
     D         A         D
Un dolor, un dolor, un dolor


y este rekinto tambien va en medio de la musica despues del primer coro
LA RLA ESTA EN D Y ESA nota CAE CUANDO SE TERMINA EL REKINTO
dudas al e-mail jose_amores2@
Suggest correction
Creating personal tab
Creating personal tab
You can edit any tab online and save it as your Personal.

You can edit, replace or remove any tab part or add personal notes – all changes will be seen only by you.

Personal tabs can be accessed anytime from any device, even offline.
Learn more »
Give kudos to tab author, rate the tab!
1 2 3 4 5
comments
print report bad tab
guest
Wanna post a correction for this tab? Suggest correction