Oops, an error
Loading. Please wait.

Tu Y Yo tab

20 views 1 this week
no commentswrite comment
1 2 3 4 5
3 more votes to show rating
add to favorites
×
Save as Personal and add changes to this tab that will be seen only by you. Learn more ›
×
You can save this tab as Personal to edit and correct it or add notes. All changes will be seen only by you. Learn more »
launch autoscroll
font size
0
reset
how to read this tab
guitar tuner
edit
Autoscroll
slow
fast
+/-
esc
set tempo
stop
RE           SOL    RE  RE          LA
E-0-0/2--0--------3---2---0-0/2--0----0--------------|
B-3----3--3-3------3---3--3----3--3-3-2--------------|
G-2-----2--2--------0---2-2-----2--2--2--------------|
D-0-----------------------0-----------2--------------|
A----------------------------------------------------|
E--------------3-------------------------------------|
  RE    SOL   SIm   LA
E----2----3-----2-----0------------------------------|
B-----3----3-----3-----2-----------------------------|
G--2-----0-----4-----2-------------------------------|
D-0--------------------------------------------------|
A-------------2-----0--------------------------------|
E-------3--------------------------------------------|
Tu y yo
RE SOL SIm LA

amigos que juegan con fuego
RE       SOL      SIm      LA

estan asi
RE SOL SIm LA

pasando el tiempo sin hacer
RE       SOL      SIm      LA

nada
RE       SOL      SIm      LA

Tu y yo
viajemos hasta encontrarnos los
dos y ver
que el dia se acaba en un minuto

Tu y yo
soloooosss
tu y yo
Soloooosss

Tu y yo
bailemos esta ultima noche
de amor
que el dia se acaba en un minuto

Tu y yo
soloooosss
tu y yo
Soloooosss

Esta es una de las dos unicas canciones que me gustaban de este
grupo, pq con las demas pasaba muy poco, esta dedicada por
supuesto a mi princesita que a lo lejos quiero que sepa ke siempre
pienso en ella y ke la amo con todo mi corazon....
Y saludos pa mis patas Angel, Efra poguito, Kenylove,chino y shamilo


//////////////////////////////////////////////////////////// //
/////  //////  //  //  ///  ////////    //// //       /// ////// /// ///
////  //////  //  // //// / ///////  // /// //  ///  /////// //////////
///  //////  //     //// //  /////  /// // //  ///  /// /////// /// //////
//  //////  //  //  ///       ///  //// / //  ///  ///////// ////////
/      //  //  ///  /   /////  /  /////  //       /////// /////
///////////////////////////////////////////////////// //

            
            
Suggest correction
Creating personal tab
Creating personal tab
You can edit any tab online and save it as your Personal.

You can edit, replace or remove any tab part or add personal notes – all changes will be seen only by you.

Personal tabs can be accessed anytime from any device, even offline.
Learn more »
Give kudos to tab author, rate the tab!
1 2 3 4 5
comments
print report bad tab
guest
Wanna post a correction for this tab? Suggest correction