Oops, an error
Loading. Please wait.

La Novia De Linus tab

55 views 1 this week
no commentswrite comment
1 2 3 4 5
3 more votes to show rating
add to favorites
×
Save as Personal and add changes to this tab that will be seen only by you. Learn more ›
×
You can save this tab as Personal to edit and correct it or add notes. All changes will be seen only by you. Learn more »
launch autoscroll
font size
0
reset
how to read this tab
guitar tuner
edit
Autoscroll
slow
fast
+/-
esc
set tempo
stop
Intro

Primera Guitarra

e|---------------|---------------|----------------|----------------|
B|-5-5-5---------|-5-5-5---------|-5-5-5----------|----------------|
G|-------7-5-7-5-|-------7-5-7-5-|-------7-5-7/12-|-12-12--7-5-7-5-|
D|---------------|---------------|----------------|----------------|
A|---------------|---------------|----------------|----------------|
E|---------------|---------------|----------------|----------------|

Tambien se lo podria tocar a dos guitarras

Segunda Guitarra

e|-12-12-12-------------|-12-12-12-------------|
B|----------15-13-15-13-|----------15-13-15-13-|
G|----------------------|----------------------|
D|----------------------|----------------------|
A|----------------------|----------------------|
E|----------------------|----------------------|


e|-12-12-12----------15--|-15-15----------------|
B|----------15-13-15-----|----------15-13-15-13-|
G|-----------------------|----------------------|
D|-----------------------|----------------------|
A|-----------------------|----------------------|
E|-----------------------|----------------------|

Acompañamiento

  C5             D5             F5             G5
e|--------------|--------------|--------------|--------------|
B|--------------|--------------|--------------|--------------|
G|--5--5--5--5--|--7--7--7--7--|--------------|--------------|
D|--5--5--5--5--|--7--7--7--7--|--3--3--3--3--|--5--5--5--5--|
A|--3--3--3--3--|--5--5--5--7--|--3--3--3--3--|--5--5--5--5--|
E|--------------|--------------|--1--1--1--1--|--3--3--3--3--|


Verso

Para el verso se usa la siguiente secuencia

  C5             D5             G5             G5
e|--------------|--------------|--------------|--------------|
B|--------------|--------------|--------------|--------------|
G|--5--5--5--5--|--7--7--7--7--|--------------|--5--5--5--5--|
D|--5--5--5--5--|--7--7--7--7--|--5--5--5--5--|--5--5--5--5--|
A|--3--3--3--3--|--5--5--5--7--|--5--5--5--5--|--3--3--3--3--|
E|--------------|--------------|--3--3--3--3--|--------------|

Se repite 4 veces y luego

  F5             C5             G5             C5
e|--------------|--------------|--------------|--------------|
B|--------------|--------------|--------------|--------------|
G|--------------|--5--5--5--5--|--------------|--5--5--5--5--|
D|--3--3--3--3--|--5--5--5--5--|--5--5--5--5--|--5--5--5--5--|
A|--3--3--3--3--|--3--3--3--3--|--5--5--5--5--|--3--3--3--3--|
E|--1--1--1--1--|--------------|--3--3--3--3--|--------------|

Y se repite para toda la cancion

Excepto en la parte que hay el cambio de ritmo y se arpegia los acordes

Espero que les sirva
Suggest correction
Creating personal tab
Creating personal tab
You can edit any tab online and save it as your Personal.

You can edit, replace or remove any tab part or add personal notes – all changes will be seen only by you.

Personal tabs can be accessed anytime from any device, even offline.
Learn more »
Give kudos to tab author, rate the tab!
1 2 3 4 5
comments
print report bad tab
guest
Wanna post a correction for this tab? Suggest correction