Oops, an error
Loading. Please wait.
19 views 1 this week
no commentswrite comment
1 2 3 4 5
3 more votes to show rating
add to favorites
launch autoscroll
font size
0
reset
how to read this tab
guitar tuner
×
Best way to learn
"Change"
Autoscroll
slow
fast
+/-
esc
set tempo
stop
Author
Difficulty
Tuning
  follow
intermediate
B F# B E G# C#
-------------------------------------------------------------------------------
                            Change - Losing September
-------------------------------------------------------------------------------


Losing September
"Change"
ALBUM - There Will Be Casualties
2010 Fidelity Entertainment
Website: www.losingseptember.com
Facebook: www.facebook.com/musicforlosers
YouTube: (Lyric Video) - https://www.youtube.com/watch?v=7-77z7CuAEo
Tabbed by: RiseOfRock9



************************************

| /   slide up
| \   slide down
| h   hammer-on
| p   pull-off
| v   vibrato
| +   harmonic
| *   Pinch Harmonic
| x   Mute note
| b   Bend
| pb  Pre-bend
| br  Bend release
| pbr Pre-bend release
| brb Bend release bend

************************************


Tuning: Drop B       B-F#-B-E-G#-C# 

 
Guitar 1 is the rhythm guitar.
Guitar 2 is the lead guitar.
Bass is the Bass guitar. 



  |INTRO  
  |Guitar 1
C#|---------------------|---------------------|
G#|---------------------|---------------------|
E |---------------------|---------------------|    
B |-4444-6666-7777-9999-|-4444-6666-7777-6666-|
F#|---------------------|---------------------|
B |---------------------|---------------------|
  |PM.........................................
  |
  |Guitar 2
C#|---------------------|---------------------|
G#|---------------------|---------------------|
E |---------------------|---------------------| 
B |-4444-6666-7777-9999-|-4444-6666-7777-6666-|
F#|---------------------|---------------------|
B |---------------------|---------------------|
  |PM.........................................
  |
  |Bass
E |---------------------|---------------------|    
B |---------------------|---------------------|
F#|---------------------|---------------------|
B |-0-------------------|-4-------------------|
  






|VERSE 1
|Guitar 1
|-----------------------------|---------------------------------|
|-----------------------------|---------------------------------|
|-----------------------------|---------------------------------|   
|---4444---6666---777---9999--|----4444---6666----7777---6666---|
|-----------------------------|---------------------------------|
|-----------------------------|---------------------------------|
|PM.............................................................
|
|Guitar 2
|-----------------------------|---------------------------------|
|-----------------------------|---------------------------------|
|-----------------------------|---------------------------------| 
|-11111111-9999----------9999-|-11111111-9999-------------------|
|---------------12121212------|---------------12121212-11h12-11-|
|-----------------------------|---------------------------------|
|PM.............................................................
|
|Bass
|-----------------------------|---------------------------------|
|-----------------------------|---------------------------------|
|-----------------------------|---------------------------------|
|-0---------------------------|-4-------------------------------|






|VERSE 1
|Guitar 1  
|-----------------------------|---------------------------------|
|-----------------------------|---------------------------------|
|-----------------------------|---------------------------------|   
|---4444---6666---777---9999--|----4444---6666----7777---6666---|
|-----------------------------|---------------------------------|
|-----------------------------|---------------------------------|
|PM.............................................................
|
|Guitar 2
|-----------------------------|---------------------------------|
|-----------------------------|---------------------------------|
|-----------------------------|---------------------------------| 
|-11111111-9999----------9999-|-11111111-9999-------------------|
|---------------12121212------|---------------12121212-11111111-|
|-----------------------------|---------------------------------|
|PM.............................................................
|
|Bass
|-----------------------------|---------------------------------|
|-----------------------------|---------------------------------|
|-----------------------------|---------------------------------|
|-0---------------------------|-4-------------------------------|






|VERSE 1
|Guitar 1
|-----------------------------|---------------------------------|
|-----------------------------|---------------------------------|
|-----------------------------|---------------------------------|   
|---4444---6666---777---9999--|----4444---6666----7777---6666---|
|-----------------------------|---------------------------------|
|-----------------------------|---------------------------------|
|PM.............................................................
|
|Guitar 2
|-----------------------------|---------------------------------|
|-----------------------------|---------------------------------|
|-----------------------------|---------------------------------| 
|-11111111-9999----------9999-|-11111111-9999-------------------|
|---------------12121212------|---------------12121212-11h12-11-|
|-----------------------------|---------------------------------|
|PM.............................................................
|
|Bass
|-----------------------------|---------------------------------|
|-----------------------------|---------------------------------|
|-----------------------------|---------------------------------|
|-0---------------------------|-4-------------------------------|




*****************************************************************************



(0:31)
|CHORUS 1
|Guitar 1  
|----------------------------------|--------------------------|
|----------------------------------|--------------------------|
|----------------------------------|--------------------------|   
|--00---00----00---00----777--6--6-|-44-44--44-44---666--7-7--|
|--00---00----00---00----777--6--6-|-44-44--44-44---666--7-7--|
|--00---00----00---00----777--6--6-|-44-44--44-44---666--7-7--|
|
|Guitar 2
|----------------------------------|--------------------------|
|----------------------------------|--------------------------|
|-1111-1111--1111-1111---999/11-11-|-66-66--66-66---444/6-6---|
|----------------------------------|--------------------------|
|--9-9--9-9---9-9--9-9---777/-9--9-|-44-44--44-44---222/4-4---|
|----------------------------------|--------------------------|
|
|Bass
|----------------------------------|--------------------------|
|----------------------------------|--------------------------|
|----------------------------------|--------------------------|
|--00---00----00---00----777--6--6-|-44-44--44-44---666--7-7--|




|CHORUS 1
|Guitar 1  
|----------------------------------|--------------------------|
|----------------------------------|--------------------------|
|----------------------------------|--------------------------|   
|--00---00----00---00----777--6--6-|-44-44--44-44---666--7-7--|
|--00---00----00---00----777--6--6-|-44-44--44-44---666--7-7--|
|--00---00----00---00----777--6--6-|-44-44--44-44---666--7-7--|
|
|Guitar 2
|----------------------------------|--------------------------|
|----------------------------------|--------------------------|
|-1111-1111--1111-1111---999/11-11-|-66-66--66-66---444/6-6---|
|----------------------------------|--------------------------|
|--9-9--9-9---9-9--9-9---777/-9--9-|-44-44--44-44---222/4-4---|
|----------------------------------|--------------------------|
|
|Bass
|----------------------------------|--------------------------|
|----------------------------------|--------------------------|
|----------------------------------|--------------------------|
|--00---00----00---00----777--6--6-|-44-44--44-44---666--7-7--|




|CHORUS 1
|Guitar 1  
|------------------------------------|
|------------------------------------|
|------------------------------------| 
|--00---00----00---00----0---PAUSE---|
|--00---00----00---00----0-----------|
|--00---00----00---00----0-----------|
|
|Guitar 2
|------------------------------------|
|------------------------------------|
|-1111-1111--1111-1111---11----------|
|----------------------------PAUSE---|
|--9-9--9-9---9-9--9-9----9----------|
|------------------------------------|
|
|Bass
|------------------------------------|
|----------------------------PAUSE---|
|------------------------------------|
|--00---00----00---00-----0----------|





*****************************************************************************




(0:50) 
|VERSE 2
|Guitar 1
|---------------------|---------------------|
|---------------------|---------------------|
|---------------------|---------------------|    
|-4444-6666-7777-9999-|-4444-6666-7777-6666-|
|---------------------|---------------------|
|---------------------|---------------------|
|PM.........................................
|
|Guitar 2
|---------------------|---------------------|
|---------------------|---------------------|
|---------------------|---------------------| 
|-4444-6666-7777-9999-|-4444-6666-7777-6666-|
|---------------------|---------------------|
|---------------------|---------------------|
|PM.........................................
|
|Bass
|---------------------|---------------------|    
|---------------------|---------------------|
|---------------------|---------------------|
|-0-------------------|-4-------------------|
  




|VERSE 2
|Guitar 1
|-----------------------------|---------------------------------|
|-----------------------------|---------------------------------|
|-----------------------------|---------------------------------|   
|---4444---6666---777---9999--|----4444---6666----7777---6666---|
|-----------------------------|---------------------------------|
|-----------------------------|---------------------------------|
|PM.............................................................
|
|Guitar 2
|-----------------------------|---------------------------------|
|-----------------------------|---------------------------------|
|-----------------------------|---------------------------------| 
|-11111111-9999----------9999-|-11111111-9999-------------------|
|---------------12121212------|---------------12121212-11h12-11-|
|-----------------------------|---------------------------------|
|PM.............................................................
|
|Bass
|-----------------------------|---------------------------------|
|-----------------------------|---------------------------------|
|-----------------------------|---------------------------------|
|-0---------------------------|-4-------------------------------|






|VERSE 2
|Guitar 1 
|-----------------------------|---------------------------------|
|-----------------------------|---------------------------------|
|-----------------------------|---------------------------------|   
|---4444---6666---777---9999--|----4444---6666----7777---6666---|
|-----------------------------|---------------------------------|
|-----------------------------|---------------------------------|
|PM.............................................................
|
|Guitar 2
|-----------------------------|---------------------------------|
|-----------------------------|---------------------------------|
|-----------------------------|---------------------------------| 
|-11111111-9999----------9999-|-11111111-9999-------------------|
|---------------12121212------|---------------12121212-11h12-11-|
|-----------------------------|---------------------------------|
|PM.............................................................
|
|Bass
|-----------------------------|---------------------------------|
|-----------------------------|---------------------------------|
|-----------------------------|---------------------------------|
|-0---------------------------|-4-------------------------------|




*****************************************************************************




(1:12)
|CHORUS 2
|Guitar 1  
|----------------------------------|--------------------------|
|----------------------------------|--------------------------|
|----------------------------------|--------------------------|   
|--00---00----00---00----777--6--6-|-44-44--44-44---666--7-7--|
|--00---00----00---00----777--6--6-|-44-44--44-44---666--7-7--|
|--00---00----00---00----777--6--6-|-44-44--44-44---666--7-7--|
|
|Guitar 2
|----------------------------------|--------------------------|
|----------------------------------|--------------------------|
|-1111-1111--1111-1111---999/11-11-|-66-66--66-66---444/6-6---|
|----------------------------------|--------------------------|
|--9-9--9-9---9-9--9-9---777/-9--9-|-44-44--44-44---222/4-4---|
|----------------------------------|--------------------------|
|
|Bass
|----------------------------------|--------------------------|
|----------------------------------|--------------------------|
|----------------------------------|--------------------------|
|--00---00----00---00----777--6--6-|-44-44--44-44---666--7-7--|




|CHORUS 2
|Guitar 1  
|----------------------------------|--------------------------|
|----------------------------------|--------------------------|
|----------------------------------|--------------------------|   
|--00---00----00---00----777--6--6-|-44-44--44-44---666--7-7--|
|--00---00----00---00----777--6--6-|-44-44--44-44---666--7-7--|
|--00---00----00---00----777--6--6-|-44-44--44-44---666--7-7--|
|
|Guitar 2
|----------------------------------|--------------------------|
|----------------------------------|--------------------------|
|-1111-1111--1111-1111---999/11-11-|-66-66--66-66---444/6-6---|
|----------------------------------|--------------------------|
|--9-9--9-9---9-9--9-9---777/-9--9-|-44-44--44-44---222/4-4---|
|----------------------------------|--------------------------|
|
|Bass
|----------------------------------|--------------------------|
|----------------------------------|--------------------------|
|----------------------------------|--------------------------|
|--00---00----00---00----777--6--6-|-44-44--44-44---666--7-7--|





|CHORUS 2
|Guitar 1  
|------------------------------------|
|------------------------------------|
|------------------------------------| 
|--00--00------00--00----0---PAUSE---|
|--00--00------00--00----0-----------|
|--00--00------00--00----0-----------|
|
|Guitar 2
|------------------------------------|
|------------------------------------|
|-1111-1111--1111-1111---11----------|
|----------------------------PAUSE---|
|--9-9--9-9---9-9--9-9----9----------|
|------------------------------------|
|
|Bass
|------------------------------------|
|----------------------------PAUSE---|
|------------------------------------|
|--00--00-------00--00----0----------|





*****************************************************************************





|BREAKDOWN 1
|Guitar 1  
|-----------------------------|-----------------------------|
|-----------------------------|-----------------------------|
|-----------------------------|-----------------------------|
|-----------------------------|-----------------------------|
|-44-44---44-44-----000-2--2--|-44-44---44-44-----000-2--2*-|
|-44-44---44-44-----000-2--2--|-44-44---44-44-----000-2-----|
|
|Guitar 2
|-----------------------------|-----------------------------|
|-----------------------------|-----------------------------|
|-----------------------------|-----------------------------|
|-----------------------------|-----------------------------|
|-44-44---44-44-----000-2--2--|-44-44---44-44-----000-2-----|
|-44-44---44-44-----000-2--2--|-44-44---44-44-----000-2--2*-|
|
|Bass
|-----------------------------|-----------------------------|
|-----------------------------|-----------------------------|
|-----------------------------|-----------------------------|
|-44-44---44-44-----000-2--2--|-44-44---44-44-----000-2--2--|






*****************************************************************************




(1:45)
|BRIDGE 1
|Guitar 1
|--------------------|---------------------|
|--------------------|---------------------|
|--------------------|---------------------|   
|-4444-6666-777-9999-|-4444-6666-7777-6666-|
|--------------------|---------------------|
|--------------------|---------------------|
|PM........................................
|
|Bass
|--------------------|---------------------|
|--------------------|---------------------|
|--------------------|---------------------|
|-0------------------|-4-------------------|




*****************************************************************************



(1:53)
|SOLO 1
|Guitar 1
|------------------------------------|---------------------------------|
|------------------------------------|---------------------------------|
|------------------------------------|---------------------------------|   
|--4-4-4-4-6-6-6-6-7-7-7-7-9-9-9-9---|-4-4-4-4-6-6-6-6-7-7-7-7-6-6-6-6-|
|------------------------------------|---------------------------------|
|------------------------------------|---------------------------------|
|PM....................................................................
|
|Guitar 2
|------------------------------------|---------------------------------|
|------------------------------------|---------------------------------|
|-11111111-1111111-11111111-13131313-|-11111111-1111111-11111111-9999--|
|------------------------------------|---------------------------------| 
|------------------------------------|---------------------------------|
|------------------------------------|---------------------------------|
|PM....................                .....................
|
|Bass
|------------------------------------|---------------------------------|
|------------------------------------|---------------------------------|
|------------------------------------|---------------------------------|
|-0--------0----------0-------0------|-4---------4-------4-------4-----|





|SOLO 1
|Guitar 1
|------------------------------------|----------------------------------|
|------------------------------------|----------------------------------|
|------------------------------------|----------------------------------|   
|---4-4-4-4-6-6-6-6-7-7-7-7-9-9-9-9--|-4-4-4-4--6-6-6-6-7-7-7-7-6-6-6-6-|
|------------------------------------|----------------------------------|
|------------------------------------|----------------------------------|
|PM....................................................................
|
|Guitar 2
|------------------------------------|----------------------21h22p21p19-|
|------------------------------------|-------------------18-------------|
|-11111111-1111111-11111111-13131313-|-16v---16v---16-17----------------| 
|------------------------------------|----------------------------------|
|------------------------------------|----------------------------------|
|------------------------------------|----------------------------------|
|PM....................               
|
|Bass
|------------------------------------|----------------------------------|
|------------------------------------|----------------------------------|
|------------------------------------|----------------------------------|
|-0---0---0---0----0----0----0----0--|-4---4---4---4----4----4---4----4-|



|SOLO 1
|Guitar 1
|------------------------------------|---------------------------------|
|------------------------------------|---------------------------------|
|------------------------------------|---------------------------------|   
|---4-4-4-4-6-6-6-6-7-7-7-7-9-9-9-9--|-4-4-4-4-6-6-6-6-7-7-7-7-6-6-6-6-|
|------------------------------------|---------------------------------|
|------------------------------------|---------------------------------|
|PM....................................................................
|
|Guitar 2
|-21v-------21v-------19-21---14-16--|-17h19p17p16-17----14------16----|
|------------------------------------|---------------------------------|
|------------------------------------|---------------------------------|
|------------------------------------|---------------------------------|
|------------------------------------|---------------------------------|
|------------------------------------|---------------------------------|
|             
|
|Bass
|------------------------------------|---------------------------------|
|------------------------------------|---------------------------------|
|------------------------------------|---------------------------------|
|-0----------------------------------|-4-------------------------------|



(2:14
|SOLO 1
|Guitar 1
|----------------------------------------------------------------|
|----------------------------------------------------------------|
|----------------------------------------------------------------|   
|----------------------------------------------------------------| 
|--0---0---0---0---6---6---6---6---7---7---7---7---9---9---9---9-| 
|--0---0---0---0---6---6---6---6---7---7---7---7---9---9---9---9-|
|
|Guitar 2
|-14h16p14-------------------------------------------------------|
|----------171514-14h15p14---------------------------------------|
|--------------------------161413-13h14p13-----------------------|
|------------------------------------------161412-12h14p12-------|
|---------------------------------------------------------161412-|
|----------------------------------------------------------------|
|             
|
|Bass
|----------------------------------------------------------------|
|----------------------------------------------------------------|
|----------------------------------------------------------------|
|--0---0---0---0---6---6---6---6---7---7---7---7---9---9---9---9-|






|SOLO 1
|Guitar 1
|----------------------------------------------------------------|
|----------------------------------------------------------------|
|----------------------------------------------------------------|   
|----------------------------------------------------------------| 
|--4---4---4---4---6---6---6---6---7---7---7---7---9---9---9---9-| 
|--4---4---4---4---6---6---6---6---7---7---7---7---9---9---9---9-|
|
|Guitar 2
|----------------------------------------------------------------|
|------------------------------------------------------141517----|
|--------------------------------------111314--131416------------|
|--------111214---------121416-111214----------------------------|
|-111214--------121416-------------------------------------------|
|----------------------------------------------------------------|              
|PM.....        ......         ..............
|
|Bass
|----------------------------------------------------------------|
|----------------------------------------------------------------|
|----------------------------------------------------------------|
|--4---4---4---4---6---6---6---6---7---7---7---7---9---9---9---9-|







|SOLO 1
|Guitar 1
|----------------------------------------------------------------------------|
|----------------------------------------------------------------------------|
|----------------------------------------------------------------------------|   
|----------------------------------------------------------------------------| 
|-----0---0---0---0----6---6---6---6-----7---7---7---7-----9---9---9---9-----| 
|-----0---0---0---0----6---6---6---6-----7---7---7---7-----9---9---9---9-----|
|
|Guitar 2
|-14h16p14------------14h16p14----------14h16p14----------14h16p14-----------|
|----------1715141517---------1715141517--------1715141517--------1715141517-|
|----------------------------------------------------------------------------|
|----------------------------------------------------------------------------|
|----------------------------------------------------------------------------|
|----------------------------------------------------------------------------|
|PM        ..........          .........         ..........        .........
|
|Bass
|----------------------------------------------------------------------------|
|----------------------------------------------------------------------------|   
|----------------------------------------------------------------------------| 
|-----0---0---0---0----6---6---6---6-----7---7---7---7-----9---9---9---9-----|






|SOLO 1
|Guitar 1
|-----------------------------------------------------------------------------|
|-----------------------------------------------------------------------------|
|-----------------------------------------------------------------------------|   
|-----------------------------------------------------------------------------| 
|-----4---4---4---4----6---6---6---6-----7---7---7---7-----6---6---6---6------| 
|-----4---4---4---4----6---6---6---6-----7---7---7---7-----6---6---6---6------|
|
|Guitar 2
|-16h17p16------------16h17p16-----------16h17p16----------16h17p16-----------|
|----------1917151719----------1917151719--------1917151719--------1917151719-|
|-----------------------------------------------------------------------------|
|-----------------------------------------------------------------------------|
|-----------------------------------------------------------------------------|
|-----------------------------------------------------------------------------|
|PM        ..........          ..........         .........         .........
|
|Bass
|-----------------------------------------------------------------------------|
|-----------------------------------------------------------------------------|   
|-----------------------------------------------------------------------------| 
|-----4---4---4---4----6---6---6---6-----7---7---7---7-----6---6---6---6------|




|SOLO 1
|Guitar 1
|----------------------------------------------------------------------------|
|----------------------------------------------------------------------------|
|----------------------------------------------------------------------------|   
|----------------------------------------------------------------------------| 
|-----0---0---0---0----6---6---6---6-----7---7---7---7-----9---9---9---9-----| 
|-----0---0---0---0----6---6---6---6-----7---7---7---7-----9---9---9---9-----|
|
|Guitar 2
|-14h16p14------------14h16p14----------14h16p14----------14h16p14-----------|
|----------1715141517---------1715141517--------1715141517--------1715141517-|
|----------------------------------------------------------------------------|
|----------------------------------------------------------------------------|
|----------------------------------------------------------------------------|
|----------------------------------------------------------------------------|
|PM        ..........          .........         ..........        .........
|
|Bass
|----------------------------------------------------------------------------|
|----------------------------------------------------------------------------|   
|----------------------------------------------------------------------------| 
|-----0---0---0---0----6---6---6---6-----7---7---7---7-----9---9---9---9-----|






|SOLO 1
|Guitar 1
|---------------------------------------------------------------|
|---------------------------------------------------------------|
|---------------------------------------------------------------|   
|------------------------------------------------PAUSE----------| 
|-----4---4---4---4----6---6---6---6-----7----------------------| 
|-----4---4---4---4----6---6---6---6-----7----------------------|
|
|Guitar 2
|-16h17p16------------16h17p16----------------------------------|
|----------1917151719----------1917151516b-(17)-----------------|
|---------------------------------------------------------------|
|---------------------------------------------------------------|
|---------------------------------------------------------------|
|---------------------------------------------------------------|
|PM        ..........          ..........        
|
|Bass
|---------------------------------------------------------------|
|-----------------------------------------------PAUSE-----------|   
|---------------------------------------------------------------| 
|-----4---4---4---4----6---6---6---6-----7----------------------|







*****************************************************************************






(2:36)
|CHORUS 3
|Guitar 1  
|----------------------------------|--------------------------|
|----------------------------------|--------------------------|
|----------------------------------|--------------------------|   
|--00---00----00---00----777--6--6-|-44-44--44-44---666--7-7--|
|--00---00----00---00----777--6--6-|-44-44--44-44---666--7-7--|
|--00---00----00---00----777--6--6-|-44-44--44-44---666--7-7--|
|
|Guitar 2
|----------------------------------|--------------------------|
|----------------------------------|--------------------------|
|-1111-1111--1111-1111---999/11-11-|-66-66--66-66---444/6-6---|
|----------------------------------|--------------------------|
|--9-9--9-9---9-9--9-9---777/-9--9-|-44-44--44-44---222/4-4---|
|----------------------------------|--------------------------|
|
|Bass
|----------------------------------|--------------------------|
|----------------------------------|--------------------------|
|----------------------------------|--------------------------|
|--00---00----00---00----777--6--6-|-44-44--44-44---666--7-7--|




|CHORUS 3
|Guitar 1  
|----------------------------------|--------------------------|
|----------------------------------|--------------------------|
|----------------------------------|--------------------------|   
|--00---00----00---00----777--6--6-|-44-44--44-44---666--7-7--|
|--00---00----00---00----777--6--6-|-44-44--44-44---666--7-7--|
|--00---00----00---00----777--6--6-|-44-44--44-44---666--7-7--|
|
|Guitar 2
|----------------------------------|--------------------------|
|----------------------------------|--------------------------|
|-1111-1111--1111-1111---999/11-11-|-66-66--66-66---444/6-6---|
|----------------------------------|--------------------------|
|--9-9--9-9---9-9--9-9---777/-9--9-|-44-44--44-44---222/4-4---|
|----------------------------------|--------------------------|
|
|Bass
|----------------------------------|--------------------------|
|----------------------------------|--------------------------|
|----------------------------------|--------------------------|
|--00---00----00---00----777--6--6-|-44-44--44-44---666--7-7--|





|CHORUS 3
|Guitar 1  
|------------------------------------|-------------------------------------|
|------------------------------------|-------------------------------------|
|------------------------------------|-------------------------------------|   
|--00---00----00---00----777---6--6--|--44--44----44--44-----666---7--7----|
|--00---00----00---00----777---6--6--|--44--44----44--44-----666---7--7----|
|--00---00----00---00----777---6--6--|--44--44----44--44-----666---7--7----|
|
|Guitar 2
|------------------------------------|-------------------------------------|
|------------------------------------|-------------------------------------|
|-1111-1111--1111-1111--141414/16-16-|-1818-1818--1818-1818---161616/14-16-|
|------------------------------------|-------------------------------------|
|--9-9--9-9---9-9--9-9--121212/14-14-|-1616-1616--1616-1616---141414/12-14-|
|------------------------------------|-------------------------------------|
|
|Bass
|------------------------------------|-------------------------------------|
|------------------------------------|-------------------------------------|
|------------------------------------|-------------------------------------|   
|--00---00----00---00----777---6--6--|--44--44----44--44-----666---7--7----|





|CHORUS 3
|Guitar 1  
|------------------------------------|-------------------------------------|
|------------------------------------|-------------------------------------|
|------------------------------------|-------------------------------------|   
|--00---00----00---00----777---6--6--|--44--44----44--44-----666---7--7----|
|--00---00----00---00----777---6--6--|--44--44----44--44-----666---7--7----|
|--00---00----00---00----777---6--6--|--44--44----44--44-----666---7--7----|
|
|Guitar 2
|------------------------------------|--------------------------/17---16---|
|------------------------------------|-------------------------------------|
|-1111-1111--1111-1111--151515/14-14-|-1111-1111--1111-1111----------------|
|------------------------------------|-------------------------------------|
|--9-9--9-9---9-9--9-9--131313/12-12-|--9-9--9-9---9-9--9-9----------------|
|------------------------------------|-------------------------------------|
|
|Bass
|------------------------------------|-------------------------------------|
|------------------------------------|-------------------------------------|
|------------------------------------|-------------------------------------|   
|--00---00----00---00----777---6--6--|--44--44----44--44-----666---7--7----|




|CHORUS 3
|Guitar 1  
|------------------------------------|
|------------------------------------|
|------------------------------------| 
|--00--0------000-0------PAUSE-------|
|--00--0------000-0------------------|
|--00--0------000-0------------------|
|
|Guitar 2
|-14v--------------------------------|
|------------------------------------|
|------------------------PAUSE-------|
|------------------------------------|
|------------------------------------|
|------------------------------------|
|
|Bass
|------------------------------------|
|------------------------PAUSE-------|
|------------------------------------|
|--00--0------000-0------------------|



END




*****************************************************************************
Suggest correction
Give kudos to tab author, rate the tab!
1 2 3 4 5
comments
print report bad tab
guest
You may want to rate the tab now too:
select rating
Wanna post a correction for this tab? Suggest correction