Oops, an error
Loading. Please wait.

Complicated tab

55 views 1 this week
no commentswrite comment
1 2 3 4 5
3 more votes to show rating
add to favorites
×
Save as Personal and add changes to this tab that will be seen only by you. Learn more ›
×
You can save this tab as Personal to edit and correct it or add notes. All changes will be seen only by you. Learn more »
launch autoscroll
font size
0
reset
how to read this tab
guitar tuner
edit
Autoscroll
slow
fast
+/-
esc
set tempo
stop
-------------------------------------------------------------------------------
                            Complicated - Losing September
-------------------------------------------------------------------------------


Losing September
"Complicated"
ALBUM - Project Mayhem
2012 Vindicated Records
Website: www.losingseptember.com
Facebook: www.facebook.com/musicforlosers
YouTube: (Official Music Video) https://www.youtube.com/watch?v=JQgqiXzYbNo
Tabbed by: RiseOfRock9



************************************

| /   slide up
| \   slide down
| h   hammer-on
| p   pull-off
| v   vibrato
| +   harmonic
| *   Pinch Harmonic
| x   Mute note
| b   Bend
| pb  Pre-bend
| br  Bend release
| pbr Pre-bend release
| brb Bend release bend

************************************



Tuning: Drop B       B-F#-B-E-G#-C# 

 
  |INTRO VERSE
  |Guitar 1
C#|----------------------------------------------|----------------------------------------------|
G#|----------------------------------------------|----------------------------------------------|
E |----------------------------------------------|----------------------------------------------|    
B |------------------------------------5h6p5h6---|------------------------5h6p5h6---------------|
F#|-------------------------5h6p5h6--------------|-----------------------------------5h6p5h6----|
B |-000060--0010--000060-------------------------|-000060--0010--000060-------------------------|
  PM....    ..    ....                             ....    ..    ....
  |
  |Guitar 2  
C#|----------------------------------------------|----------------------------------------------|     
G#|----------------------------------------------|----------------------------------------------|
E |----------------------------------------------|----------------------------------------------|     
B |----------------------------------12h13p12h13-|----------------------12h13p12h13-------------|
F#|----------------------12h13p12h13-------------|----------------------------------12h13p12h13-|
B |-000060--0010--000060-------------------------|-000060--0010--000060-------------------------|
  PM....    ..    ....                             ....    ..    ....



|VERSE 1
|Guitar 1
|------------------------------------------------|
|------------------------------------------------|
|------------------------------------------------|    
|--------------------------------------5h6p5h6---|
|--------------------------5h6p5h6---------------|
|-000060--0010--000060---------------------------|
PM....    ..    ....                             
|
|Guitar 2  
|------------------------------------------------|     
|------------------------------------------------|
|------------------------------------------------|       
|-----------------------------------12h13p12h13--|
|-----------------------12h13p12h13--------------|
|-000060--0010--000060---------------------------|
PM....    ..    ....



|VERSE 1
|Guitar 1
|--------------------------------------------------------------|
|--------------------------------------------------------------|
|--------------------------------------------------------------|    
|-------------------------5h6p5h6------------------------------|
|------------------------------------5h6p5h6-------------------|
|-000060--0010--000060---------------------------5h6p5h6----0--| (pause)
PM....    ..    ....
|
|Guitar 2 
|--------------------------------------------------------------|     
|--------------------------------------------------------------|
|--------------------------------------------------------------|       
|----------------------12h13p12h13-----------------------------|
|----------------------------------12h13p12h13-----------------|
|-000060--0010--000060-------------------------12h13p12h13--0--| (pause)
PM....    ..    ....



|VERSE 1
|Guitar 1
|------------------------------------------------------------------------|  
|------------------------------------------------------------------------|
|------------------------------------------------------------------------|   
|------------------------------------------------------------5h6p5h6-----|
|------------------------------------------------5h6p5h6-----------------|
|--0-0-0-0-6-0------0-0-1-0------0-0-0-0-6-0-----------------------------|
|PM. . . .          . .          . . . . 
|
|Guitar 2
|------------------------------------------------------------------------|
|------------------------------------------------------------------------|
|------------------------------------------------------------------------|
|-----------------------------------------------------------12h13p12h13--|
|----------11---------------------------11-----12h13p12h13---------------|
|-12121212----12----12121312---12121212----12----------------------------|
|PM. . . .           . .        . . . .    


|VERSE 1
|Guitar 1
|------------------------------------------------------------------------|  
|------------------------------------------------------------------------|
|------------------------------------------------------------------------|   
|-----------------------------------------------5h6p5h6------------------|
|------------------------------------------------------------5h6p5h6-----|
|--0-0-0-0-6-0------0-0-1-0------0-0-0-0-6-0-----------------------------|
|PM. . . .          . .          . . . . 
|
|Guitar 2
|------------------------------------------------------------------------|
|------------------------------------------------------------------------|
|------------------------------------------------------------------------|
|----------------------------------------------12h13p12h13---------------|
|----------11---------------------------11-----------------12h13p12h13---|
|-12121212----12----12121312---12121212----12----------------------------|
|PM. . . .           . .        . . . .  




|VERSE 1
|Guitar 1
|------------------------------------------------------------------------|  
|------------------------------------------------------------------------|
|------------------------------------------------------------------------|   
|------------------------------------------------------------5h6p5h6-----|
|------------------------------------------------5h6p5h6-----------------|
|--0-0-0-0-6-0------0-0-1-0------0-0-0-0-6-0-----------------------------|
|PM. . . .          . .          . . . . 
|
|Guitar 2
|------------------------------------------------------------------------|
|------------------------------------------------------------------------|
|------------------------------------------------------------------------|
|-----------------------------------------------------------12h13p12h13--|
|----------11---------------------------11-----12h13p12h13---------------|
|-12121212----12----12121312---12121212----12----------------------------|
|PM. . . .           . .        . . . .  



|VERSE 1
|Guitar 1
|----------------------------------------------------------------------------------|  
|----------------------------------------------------------------------------------|
|----------------------------------------------------------------------------------|   
|------------------------------------------------5h6p5h6---------------------------|
|------------------------------------------------------------5h6p5h6---------------|
|--0-0-0-0-6-0------0-0-1-0------0-0-0-0-6-0-----------------------------5h6p5h6---|
|PM. . . .          . .          . . . . 
|
|Guitar 2
|----------------------------------------------------------------------------------|
|----------------------------------------------------------------------------------|
|----------------------------------------------------------------------------------|
|----------------------------------------------12h13p12h13-------------------------|
|----------11---------------------------11-----------------12h13p12h13-------------|
|-12121212----12----12121312---12121212----12--------------------------12h13p12h13-|
|PM. . . .           . .        . . . .  


****************************************************************************************


|CHORUS 1
|Guitar 1   
|------------------|------------------|------------------|-----------------------|
|------------------|------------------|------------------|-----------------------|
|------------------|------------------|------------------|-----------------------|     
|-0-0-00--3333-3-3-|-5-5-55--5555-5-5-|-0-0-00--3333-3-3-|-5-5-55--5555-5-5------|
|-0-0-00--3333-3-3-|-3-3-33--5555-5-5-|-0-0-00--3333-3-3-|-3-3-33--5555-5-5------|
|-0-0-00--3333-3-3-|---------5555-5-5-|-0-0-00--3333-3-3-|---------5555-5-5------|
|
|
|Guitar 2       
|-5----------------|-5----------------|-5----------------|-5---------------------|
|--6---6---8---6---|--6--6---6666p5-5-|--6---6---8----6--|--6---6---8888/10--10--|
|---75---7---7---7-|---75--7----------|---75---7---7---7-|---75---7--------------|
|------------------|------------------|------------------|-----------------------|
|------------------|------------------|------------------|-----------------------|
|------------------|------------------|------------------|-----------------------| 




|CHORUS 1  
|Guitar 1   
|------------------|------------------|------------------|-----------------------|
|------------------|------------------|------------------|-----------------------|
|------------------|------------------|------------------|-----------------------|     
|-0-0-00--3333-3-3-|-5-5-55--5555-5-5-|-0-0-00--3333-3-3-|-5-5-55--5555-5-5------|
|-0-0-00--3333-3-3-|-3-3-33--5555-5-5-|-0-0-00--3333-3-3-|-3-3-33--5555-5-5------|
|-0-0-00--3333-3-3-|---------5555-5-5-|-0-0-00--3333-3-3-|---------5555-5-5------|
|
|
|Guitar 2       
|-5----------------|-5----------------|-5----------------|-5---------------------|
|--6---6---8---6---|--6--6---6666p5-5-|--6---6---8----6--|--6---6---8888/10--10--|
|---75---7---7---7-|---75--7----------|---75---7---7---7-|---75---7--------------|
|------------------|------------------|------------------|-----------------------|
|------------------|------------------|------------------|-----------------------|
|------------------|------------------|------------------|-----------------------| 



****************************************************************************************


|VERSE 2
|Guitar 1
|----------------------------------------------|----------------------------------------------|
|----------------------------------------------|----------------------------------------------|
|----------------------------------------------|----------------------------------------------|    
|------------------------------------5h6p5h6---|------------------------5h6p5h6---------------|
|-------------------------5h6p5h6--------------|-----------------------------------5h6p5h6----|
|-000060--0010--000060-------------------------|-000060--0010--000060-------------------------|
PM....    ..    ....                             ....    ..    ....
|
|Guitar 2  
|----------------------------------------------|----------------------------------------------|     
|----------------------------------------------|----------------------------------------------|
|----------------------------------------------|----------------------------------------------|     
|----------------------------------12h13p12h13-|----------------------12h13p12h13-------------|
|----------------------12h13p12h13-------------|----------------------------------12h13p12h13-|
|-000060--0010--000060-------------------------|-000060--0010--000060-------------------------|
PM....    ..    ....                             ....    ..    ....




|VERSE 2
|Guitar 1 
|------------------------------------------------|
|------------------------------------------------|
|------------------------------------------------|    
|--------------------------------------5h6p5h6---|
|--------------------------5h6p5h6---------------|
|-000060--0010--000060---------------------------|
PM....    ..    ....                             
|
|Guitar 2 
|------------------------------------------------|     
|------------------------------------------------|
|------------------------------------------------|       
|-----------------------------------12h13p12h13--|
|-----------------------12h13p12h13--------------|
|-000060--0010--000060---------------------------|
PM....    ..    ....




|VERSE 2
|Guitar 1
|--------------------------------------------------------------|
|--------------------------------------------------------------|
|--------------------------------------------------------------|    
|-------------------------5h6p5h6------------------------------|
|------------------------------------5h6p5h6-------------------|
|-000060--0010--000060---------------------------5h6p5h6----0--| (pause)
PM....    ..    ....
|
|Guitar 2 
|--------------------------------------------------------------|     
|--------------------------------------------------------------|
|--------------------------------------------------------------|       
|----------------------12h13p12h13-----------------------------|
|----------------------------------12h13p12h13-----------------|
|-000060--0010--000060-------------------------12h13p12h13--0--| (pause)
PM....    ..    ....



|VERSE 2
|Guitar 1
|------------------------------------------------------------------------|  
|------------------------------------------------------------------------|
|------------------------------------------------------------------------|   
|------------------------------------------------------------5h6p5h6-----|
|------------------------------------------------5h6p5h6-----------------|
|--0-0-0-0-6-0------0-0-1-0------0-0-0-0-6-0-----------------------------|
|PM. . . .          . .          . . . . 
|
|Guitar 2
|------------------------------------------------------------------------|
|------------------------------------------------------------------------|
|------------------------------------------------------------------------|
|-----------------------------------------------------------12h13p12h13--|
|----------11---------------------------11-----12h13p12h13---------------|
|-12121212----12----12121312---12121212----12----------------------------|
|PM. . . .           . .        . . . .    



|VERSE 2
|Guitar 1
|------------------------------------------------------------------------|  
|------------------------------------------------------------------------|
|------------------------------------------------------------------------|   
|-----------------------------------------------5h6p5h6------------------|
|------------------------------------------------------------5h6p5h6-----|
|--0-0-0-0-6-0------0-0-1-0------0-0-0-0-6-0-----------------------------|
|PM. . . .          . .          . . . . 
|
|Guitar 2
|------------------------------------------------------------------------|
|------------------------------------------------------------------------|
|------------------------------------------------------------------------|
|----------------------------------------------12h13p12h13---------------|
|----------11---------------------------11-----------------12h13p12h13---|
|-12121212----12----12121312---12121212----12----------------------------|
|PM. . . .           . .        . . . .  




|VERSE 2
|Guitar 1
|------------------------------------------------------------------------|  
|------------------------------------------------------------------------|
|------------------------------------------------------------------------|   
|------------------------------------------------------------5h6p5h6-----|
|------------------------------------------------5h6p5h6-----------------|
|--0-0-0-0-6-0------0-0-1-0------0-0-0-0-6-0-----------------------------|
|PM. . . .          . .          . . . . 
|
|Guitar 2
|------------------------------------------------------------------------|
|------------------------------------------------------------------------|
|------------------------------------------------------------------------|
|-----------------------------------------------------------12h13p12h13--|
|----------11---------------------------11-----12h13p12h13---------------|
|-12121212----12----12121312---12121212----12----------------------------|
|PM. . . .           . .        . . . .  



|VERSE 2
|Guitar 1
|----------------------------------------------------------------------------------|  
|----------------------------------------------------------------------------------|
|----------------------------------------------------------------------------------|   
|------------------------------------------------5h6p5h6---------------------------|
|------------------------------------------------------------5h6p5h6---------------|
|--0-0-0-0-6-0------0-0-1-0------0-0-0-0-6-0-----------------------------5h6p5h6---|
|PM. . . .          . .          . . . . 
|
|Guitar 2
|----------------------------------------------------------------------------------|
|----------------------------------------------------------------------------------|
|----------------------------------------------------------------------------------|
|----------------------------------------------12h13p12h13-------------------------|
|----------11---------------------------11-----------------12h13p12h13-------------|
|-12121212----12----12121312---12121212----12--------------------------12h13p12h13-|
|PM. . . .           . .        . . . .  



****************************************************************************************


|CHORUS 2
|Guitar 1    
|------------------|------------------|------------------|-----------------------|
|------------------|------------------|------------------|-----------------------|
|------------------|------------------|------------------|-----------------------|     
|-0-0-00--3333-3-3-|-5-5-55--5555-5-5-|-0-0-00--3333-3-3-|-5-5-55--5555-5-5------|
|-0-0-00--3333-3-3-|-3-3-33--5555-5-5-|-0-0-00--3333-3-3-|-3-3-33--5555-5-5------|
|-0-0-00--3333-3-3-|---------5555-5-5-|-0-0-00--3333-3-3-|---------5555-5-5------|
|
|
|Guitar 2        
|-5----------------|-5----------------|-5----------------|-5---------------------|
|--6---6---8---6---|--6--6---6666p5-5-|--6---6---8----6--|--6---6---8888/10--10--|
|---75---7---7---7-|---75--7----------|---75---7---7---7-|---75---7--------------|
|------------------|------------------|------------------|-----------------------|
|------------------|------------------|------------------|-----------------------|
|------------------|------------------|------------------|-----------------------| 



|CHORUS 2
|Guitar 1  
|------------------|------------------|------------------|-----------------------|
|------------------|------------------|------------------|-----------------------|
|------------------|------------------|------------------|-----------------------|     
|-0-0-00--3333-3-3-|-5-5-55--5555-5-5-|-0-0-00--3333-3-3-|-5-5-55--5555-5-5------|
|-0-0-00--3333-3-3-|-3-3-33--5555-5-5-|-0-0-00--3333-3-3-|-3-3-33--5555-5-5------|
|-0-0-00--3333-3-3-|---------5555-5-5-|-0-0-00--3333-3-3-|---------5555-5-5------|
|
|
|Guitar 2       
|-5----------------|-5----------------|-5----------------|-5---------------------|
|--6---6---8---6---|--6--6---6666p5-5-|--6---6---8----6--|--6---6---8888/10--10--|
|---75---7---7---7-|---75--7----------|---75---7---7---7-|---75---7--------------|
|------------------|------------------|------------------|-----------------------|
|------------------|------------------|------------------|-----------------------|
|------------------|------------------|------------------|-----------------------| 



****************************************************************************************


|SOLO
|Guitar 1 
|------------------------------|-------------------------------------|  
|------------------------------|-------------------------------------|
|------------------------------|-------------------------------------|      
|-0--0--0-0----3-3-3-3---3--3--|--5--5-5-5-----5--5-5--5----5---5----|
|-0--0--0-0----3-3-3-3---3--3--|--3--3-3-3-----5--5-5--5----5---5----|
|-0--0--0-0----3-3-3-3---3--3--|---------------5--5-5--5----5---5----|
|
|
|Guitar 2      
|--10--------13---13-----------|-------------------------------------| 
|--13b-hold-----13---13-release|-(13v)---14121012141210121412101210*-|
|------------------------------|-------------------------------------|
|------------------------------|-------------------------------------|
|------------------------------|-------------------------------------|
|------------------------------|-------------------------------------|




|SOLO
|Guitar 1  
|-------------------------------------|---------------------------------| 
|-------------------------------------|---------------------------------|
|-------------------------------------|---------------------------------|      
|--0--0--0-0-------3-3-3-3----3--3----|-5--5-5-5---5--5-5--5----5---5---|
|--0--0--0-0-------3-3-3-3----3--3----|-3--3-3-3---5--5-5--5----5---5---|
|--0--0--0-0-------3-3-3-3----3--3----|------------5--5-5--5----5---5---|
|
|
|Guitar 2       
|---------------17--17p15h17h20p17p15-|17/20--20-20---22-22-22-22p20-20-|
|-15h18p15/18-----18------------------|---------------------------------|
|-------------------------------------|---------------------------------|
|-------------------------------------|---------------------------------|
|-------------------------------------|---------------------------------|
|-------------------------------------|---------------------------------|




|SOLO
|Guitar 1   
|------------------------------------------|----------------------------------------|
|------------------------------------------|----------------------------------------|      
|--0---0--0-0-------3--3-3--3-----3---3----|---5--5-5-5------5--5-5--5-----5---5----|
|--0---0--0-0-------3--3-3--3-----3---3----|---3--3-3-3------5--5-5--5-----5---5----|
|--0---0--0-0-------3--3-3--3-----3---3----|-----------------5--5-5--5-----5---5----|
|
|
|Guitar 2    
|-22p17-----22p17-----22p17-----22p17------|-20p17-----20p17-----20p17-----20p17----|
|-------18-------18---------18--------18---|-------18--------18--------18--------18-|
|------------------------------------------|----------------------------------------|
|------------------------------------------|----------------------------------------|
|------------------------------------------|----------------------------------------|
|------------------------------------------|----------------------------------------|
|
|
|Harmony Guitar
|-17p13-----17p13-----17p13-----17p13------|-17p13-----17p13-----17p13-----17p13----|
|-------15--------15-------15--------15----|-------13--------13--------13--------13-|
|------------------------------------------|----------------------------------------|
|------------------------------------------|----------------------------------------|
|------------------------------------------|----------------------------------------|
|------------------------------------------|----------------------------------------|




|SOLO
|Guitar 1    
|------------------------------------------|----------------------------------------|
|------------------------------------------|----------------------------------------|      
|--0---0--0-0-------3--3-3--3-----3---3----|---5--5-5-5------5--5-5--5-----5---5----|
|--0---0--0-0-------3--3-3--3-----3---3----|---3--3-3-3------5--5-5--5-----5---5----|
|--0---0--0-0-------3--3-3--3-----3---3----|-----------------5--5-5--5-----5---5----|
|
|
|Guitar 2        
|-22p17-----22p17-----22p17-----22p17------|-20p17-----20p17-----20p17-----20p17----|
|-------18-------18---------18--------18---|-------18--------18--------18--------18-|
|------------------------------------------|----------------------------------------|
|------------------------------------------|----------------------------------------|
|------------------------------------------|----------------------------------------|
|------------------------------------------|----------------------------------------|
|
|
|Harmony Guitar   
|-17p13-----17p13-----17p13-----17p13------|-17p13-----17p13-----17p13-----17p13----|
|-------15---------15-------15--------15---|-------13--------13--------13--------13-|
|------------------------------------------|----------------------------------------|
|------------------------------------------|----------------------------------------|
|------------------------------------------|----------------------------------------|
|------------------------------------------|----------------------------------------|



****************************************************************************************


|BRIDGE
|Guitar 1 
|--------------------------------------------------------|
|--------------------------------------------------------|
|--------------------------------------------------------|   
|--0----------------------(0)----------------------------|
|--0----------------------(0)----------------------------|
|--0----------------------(0)----------------------------|
|
|Guitar 2
|--/22v------------------(22)----------------------------|
|--------------------------------------------------------|
|--------------------------------------------------------|
|--------------------------------------------------------|
|--------------------------------------------------------|
|--------------------------------------------------------|




|BRIDGE CONTINUED
|Guitar 1 and 2
|--------------|--------------|--------------|--------------|
|--------------|--------------|--------------|--------------|
|--------------|--------------|--------------|--------------|
|--------------|--------------|--------------|--------------|
|--0--0--0--0--|--0--0--0--0--|--3--3--3--3--|--3--3--3--3--|
|--0--0--0--0--|--0--0--0--0--|--3--3--3--3--|--3--3--3--3--|



|Guitar 1 and 2
|-----------------|-----------------|-----------------|-------------------|
|-----------------|-----------------|-----------------|-------------------|
|-----------------|-----------------|-----------------|-------------------|
|-5-5-5-5-5-5-5-5-|-5-5-5-5-5-5-5-5-|-----------------|---------PAUSE-----|
|-3-3-3-3-3-3-3-3-|-3-3-3-3-3-3-3-3-|-5-5-5-5-5-5-5-5-|-5-5-5-5-----------|
|-----------------|-----------------|-5-5-5-5-5-5-5-5-|-5-5-5-5-----------|



****************************************************************************************


|CHORUS 3
|Guitar 1   
|------------------|------------------|------------------|-----------------------|
|------------------|------------------|------------------|-----------------------|
|------------------|------------------|------------------|-----------------------|     
|-0-0-00--3333-3-3-|-5-5-55--5555-5-5-|-0-0-00--3333-3-3-|-5-5-55--5555-5-5------|
|-0-0-00--3333-3-3-|-3-3-33--5555-5-5-|-0-0-00--3333-3-3-|-3-3-33--5555-5-5------|
|-0-0-00--3333-3-3-|---------5555-5-5-|-0-0-00--3333-3-3-|---------5555-5-5------|
|
|
|Guitar 2       
|-5----------------|-5----------------|-5----------------|-5---------------------|
|--6---6---8---6---|--6--6---6666p5-5-|--6---6---8----6--|--6---6---8888/10--10--|
|---75---7---7---7-|---75--7----------|---75---7---7---7-|---75---7--------------|
|------------------|------------------|------------------|-----------------------|
|------------------|------------------|------------------|-----------------------|
|------------------|------------------|------------------|-----------------------| 




|CHORUS 3
|Guitar 1   
|------------------|------------------|------------------|-----------------------|
|------------------|------------------|------------------|-----------------------|
|------------------|------------------|------------------|-----------------------|     
|-0-0-00--3333-3-3-|-5-5-55--5555-5-5-|-0-0-00--3333-3-3-|-5-5-55--5555----------|
|-0-0-00--3333-3-3-|-3-3-33--5555-5-5-|-0-0-00--3333-3-3-|-3-3-33--5555--PAUSE---|
|-0-0-00--3333-3-3-|---------5555-5-5-|-0-0-00--3333-3-3-|---------5555----------|
|
|
|Guitar 2       
|-5----------------|-5----------------|-5----------------|-5---------------------|
|--6---6---8---6---|--6--6---6666p5-5-|--6---6---8----6--|--6---6---8888/10--10--|
|---75---7---7---7-|---75--7----------|---75---7---7---7-|---75---7--------------|
|------------------|------------------|------------------|-----------------------|
|------------------|------------------|------------------|-----------------------|
|------------------|------------------|------------------|-----------------------| 



****************************************************************************************


|POST - CHORUS
|Guitar 1 
|-----------------|------------------|------------------|------------------------|
|-----------------|------------------|------------------|------------------------|
|-----------------|------------------|------------------|------------------------|     
|-0-0-00-3333-3-3-|-5-5-55--5555-5-5-|-0-0-00--3333-3-3-|-5-5-55----5555-5-5-----|
|-0-0-00-3333-3-3-|-3-3-33--5555-5-5-|-0-0-00--3333-3-3-|-3-3-33----5555-5-5-----|
|-0-0-00-3333-3-3-|---------5555-5-5-|-0-0-00--3333-3-3-|-----------5555-5-5-----|
|
|
|Guitar 2
|-10---------10---|-13---------13----|-12---------12----|/15-13-12h13------------| 
|---10----10---10-|----10----10---10-|---10----10----10-|------------15-13-11h13-|
|------10---------|-------10---------|------10----------|------------------------|
|-----------------|------------------|------------------|------------------------| 
|-----------------|------------------|------------------|------------------------|
|-----------------|------------------|------------------|------------------------| 





|POST - CHORUS
|Guitar 1   
|-----------------|------------------|------------------|------------------------|
|-----------------|------------------|------------------|------------------------|
|-----------------|------------------|------------------|------------------------|     
|-0-0-00-3333-3-3-|-5-5-55--5555-5-5-|-0-0-00--3333-3-3-|-5-5-55------5555-5-5---|
|-0-0-00-3333-3-3-|-3-3-33--5555-5-5-|-0-0-00--3333-3-3-|-3-3-33------5555-5-5---|
|-0-0-00-3333-3-3-|---------5555-5-5-|-0-0-00--3333-3-3-|-------------5555-5-5---|
|
|
|Guitar 2
|-10---------10---|-13---------13----|-12---------12----|/15-13-12h13-/17-17v----| 
|---10----10---10-|----10----10---10-|---10----10----10-|------------------------|
|------10---------|-------10---------|------10----------|------------------------|
|-----------------|------------------|------------------|------------------------| 
|-----------------|------------------|------------------|------------------------|
|-----------------|------------------|------------------|------------------------| 



****************************************************************************************


|OUTRO
|Guitar 1
|------------------------------------------------------------------------|  
|------------------------------------------------------------------------|
|------------------------------------------------------------------------|   
|------------------------------------------------------------5h6p5h6-----|
|------------------------------------------------5h6p5h6-----------------|
|--0-0-0-0-6-0------0-0-1-0------0-0-0-0-6-0-----------------------------|
|PM. . . .          . .          . . . . 
|
|Guitar 2
|------------------------------------------------------------------------|
|------------------------------------------------------------------------|
|------------------------------------------------------------------------|
|-----------------------------------------------------------12h13p12h13--|
|----------11---------------------------11-----12h13p12h13---------------|
|-12121212----12----12121312---12121212----12----------------------------|
|PM. . . .           . .        . . . .    



|OUTRO
|Guitar 1 
|------------------------------------------------------------------------|  
|------------------------------------------------------------------------|
|------------------------------------------------------------------------|   
|-----------------------------------------------5h6p5h6------------------|
|------------------------------------------------------------5h6p5h6-----|
|--0-0-0-0-6-0------0-0-1-0------0-0-0-0-6-0-----------------------------|
|PM. . . .          . .          . . . . 
|
|Guitar 2
|------------------------------------------------------------------------|
|------------------------------------------------------------------------|
|------------------------------------------------------------------------|
|----------------------------------------------12h13p12h13---------------|
|----------11---------------------------11-----------------12h13p12h13---|
|-12121212----12----12121312---12121212----12----------------------------|
|PM. . . .           . .        . . . .  




|OUTRO
|Guitar 1
|------------------------------------------------------------------------|  
|------------------------------------------------------------------------|
|------------------------------------------------------------------------|   
|------------------------------------------------------------5h6p5h6-----|
|------------------------------------------------5h6p5h6-----------------|
|--0-0-0-0-6-0------0-0-1-0------0-0-0-0-6-0-----------------------------|
|PM. . . .          . .          . . . . 
|
|Guitar 2
|------------------------------------------------------------------------|
|------------------------------------------------------------------------|
|------------------------------------------------------------------------|
|-----------------------------------------------------------12h13p12h13--|
|----------11---------------------------11-----12h13p12h13---------------|
|-12121212----12----12121312---12121212----12----------------------------|
|PM. . . .           . .        . . . .  



|OUTRO
|Guitar 1
|------------------------------------------------------------------------------------|  
|------------------------------------------------------------------------------------|
|------------------------------------------------------------------------------------|   
|------------------------------------------------5h6p5h6-----------------------------|
|------------------------------------------------------------5h6p5h6-----------------|
|--0-0-0-0-6-0------0-0-1-0------0-0-0-0-6-0-----------------------------5h6p5h6--0--|
|PM. . . .          . .          . . . . 
|
|Guitar 2
|------------------------------------------------------------------------------------|
|------------------------------------------------------------------------------------|
|------------------------------------------------------------------------------------|
|----------------------------------------------12h13p12h13---------------------------|
|----------11---------------------------11-----------------12h13p12h13---------------|
|-12121212----12----12121312---12121212----12--------------------------12h13p12h13-0-|
|PM. . . .           . .        . . . .  
|
|
|
|
|
|
|END





            
            
Suggest correction
Creating personal tab
Creating personal tab
You can edit any tab online and save it as your Personal.

You can edit, replace or remove any tab part or add personal notes – all changes will be seen only by you.

Personal tabs can be accessed anytime from any device, even offline.
Learn more »
Give kudos to tab author, rate the tab!
1 2 3 4 5
comments
print report bad tab
guest
You may want to rate the tab now too:
select rating
Wanna post a correction for this tab? Suggest correction