Oops, an error
Loading. Please wait.
38 views 1 this week
no commentswrite comment
1 2 3 4 5
3 more votes to show rating
add to favorites
launch autoscroll
font size
0
reset
how to read this tab
guitar tuner
×
Best way to learn
"Cry"
Autoscroll
slow
fast
+/-
esc
set tempo
stop
Author
Difficulty
Tuning
  follow
intermediate
B F# B E G# C#
-------------------------------------------------------------------------------
                            Cry - Losing September
-------------------------------------------------------------------------------


Losing September
"Cry"
ALBUM - There Will Be Casualties
2010 Fidelity Entertainment
Website: www.losingseptember.com
Facebook: www.facebook.com/musicforlosers
YouTube: https://www.youtube.com/watch?v=hB_81S-hqu0
Tabbed by: RiseOfRock9



************************************

| /   slide up
| \   slide down
| h   hammer-on
| p   pull-off
| v   vibrato
| +   harmonic
| *   Pinch Harmonic
| x   Mute note
| b   Bend
| pb  Pre-bend
| br  Bend release
| pbr Pre-bend release
| brb Bend release bend

************************************


Tuning: Drop B       B-F#-B-E-G#-C# 

 
Guitar 1 is the rhythm guitar.
Guitar 2 is the lead guitar.




  |INTRO  
  |Guitar 1
C#|---------------------|---------------------|
G#|---------------------|---------------------|
E |---------------------|---------------------|    
B |---------------------|---------------------|
F#|-2222----------------|-2222----------------|
B |-2222----------------|-2222----------------|
  PM....                  ....
  |
  |Guitar 2
C#|---------------------|---------------------|
G#|---------------------|---------------------|
E |---------------------|---------------------| 
B |-----2220-0005544----|-----2220-0004455----|
F#|---------------------|---------------------|
B |-2222----------------|-2222----------------|
  PM....                  ....



|INTRO  
|Guitar 1
|---------------------|---------------------|
|---------------------|---------------------|
|---------------------|---------------------|    
|---------------------|---------------------|
|-2222----------------|-2222----------------|
|-2222----------------|-2222----------------|
PM....                  ....
|
|Guitar 2
|---------------------|---------------------|
|---------------------|---------------------|
|---------------------|---------------------| 
|-----2220-0005544----|-----2220-000--55-4--|
|---------------------|---------------------|
|-2222----------------|-2222----------------|
PM....                  ....        n,h,n,h,



|PRE VERSE  
|Guitar 1 & 2
|----------------------------|---------------------------|
|----------------------------|---------------------------|
|----------------------------|---------------------------|    
|-2----2---2-4--444--2h4p2p0-|-5----5---5-5--777--7p54p0-|  2x
|-2----2---2-2--222----------|-5----5---5-5--555---------|
|-2----2---2-2--222----------|-5----5---5-5--555---------|
                 




**********************************************************************************




(0:22)
|VERSE 1 
|Guitar 1
|---------------------------------------------------------------------|
|---------------------------------------------------------------------|
|---------------------------------------------------------------------|    
|---------------------------------------------------------------------|
|-2222222222222222-5555555555555555-0000000000000000-7777777777777777-|
|-2222222222222222-5555555555555555-0000000000000000-7777777777777777-|
PM..................................................................... 
|
|Guitar 2
|-----------------------------------------------------------------------------|
|-----------------------------------------------------------------------------|
|-----------------------------------------------------------------------------|
|-----------------------------------------------------------------------------|
|-----------------------------------------------------------------------------|
|-9999999999999999-5555555555555555-7777777777777777-101010101010101088887777-|
PM............................................................................




|VERSE 1  
|Guitar 1
|---------------------------------------------------------------------|
|---------------------------------------------------------------------|
|---------------------------------------------------------------------|    
|---------------------------------------------------------------------|
|-2222222222222222-5555555555555555-0000000000000000-7777777777777777-|
|-2222222222222222-5555555555555555-0000000000000000-7777777777777777-|
PM..................................................................... 
|
|Guitar 2
|---------------------------------------------------------------------------------|
|---------------------------------------------------------------------------------|
|---------------------------------------------------------------------------------|
|---------------------------------------------------------------------------------|
|---------------------------------------------------------------------------------|
|-9999999999999999-5555555555555555-7777777777777777-1010101010101010888812121212-|
PM................................................................................




|VERSE 1 
|Guitar 1
|--------------------------------------------------|
|--------------------------------------------------|
|--------------------------------------------------|    
|--------------------------------------------------|
|--2--22--22--22--22-2----5--55--55--55--55-5------|
|--2--22--22--22--22-2----5--55--55--55--55-5------|
PM...........................................
|
|Guitar 2
|----------------------------------------------------|
|----------------------------------------------------|
|----------------------------------------------------|
|----------------------------------------------------|
|----------------------------------------------------|
|14-1414-1414-1414-1414-14-12-1212-1212-1212-1212-12-|
PM.................................................




|VERSE 1 
|Guitar 1
|----------------------------------------------|
|----------------------------------------------|
|----------------------------------------------|
|----------------------------------------------|
|-0--00--00--00--00--0----7--77--77--77--------|
|-0--00--00--00--00--0----7--77--77--77--77-0--|
PM.  ..  ..  ..  ..  .    .  ..  ..  ..  .
|
|Guitar 2
|-------------------------------------------------|
|-------------------------------------------------|
|-------------------------------------------------|
|-------------------------------------------------|
|-------------------------------------------------|
|-16-1616-1616-1616-1616-16-14-1414-1414-1414-7-0-|
PM .  . .  . .  . .  . .  .  .  . .  . .  . . 




**********************************************************************************



(0:55)
|CHORUS 1 
|Guitar 1
|------------------------------------------------------------------------------|
|------------------------------------------------------------------------------|
|------------------------------------------------------------------------------|
|-------------------5--5-55---------------------------------5--5-55------------|
|-2--2-22--0000-0---3--3-33---5555---4----2--2-22--0000-0---3--3-33---5555-4---|
|-2--2-22--0000-0-------------5555---4----2--2-22--0000-0-------------5555-4---|
|
|Guitar 2
|------------------------------------------------------------------------------|
|------------------------------------------------------------------------------|
|-9--9-99--7777-7-12-12-1212-141414-12-12-11-111111--9999-9--7--7-77--99997777-|
|------------------------------------------------------------------------------|
|-7--7-77--5555-5-10-10-1010-121212-10-10--9--9-9-9--7777-7--5--5-55--77775555-|
|------------------------------------------------------------------------------|




|CHORUS 1 
|Guitar 1
|------------------------------------------------------------------------------|
|------------------------------------------------------------------------------|
|------------------------------------------------------------------------------|
|-------------------5--5-55---------------------------------5--5-55------------|
|-2--2-22--0000-0---3--3-33---5555---4----2--2-22--0000-0---3--3-33---5555-4---|
|-2--2-22--0000-0-------------5555---4----2--2-22--0000-0-------------5555-4---|
|
|Guitar 2
|------------------------------------------------------------------------------|
|------------------------------------------------------------------------------|
|-9--9-99--7777-7-12-12-1212-141414-12-12-11-111111--9999-9--7--7-77--99997777-|
|------------------------------------------------------------------------------|
|-7--7-77--5555-5-10-10-1010-121212-10-10--9--9-9-9--7777-7--5--5-55--77775555-|
|------------------------------------------------------------------------------|





**********************************************************************************




(1:18)
|VERSE 2 
|Guitar 1
|---------------------------------------------------------------------|
|---------------------------------------------------------------------|
|---------------------------------------------------------------------|    
|---------------------------------------------------------------------|
|-2222222222222222-5555555555555555-0000000000000000-7777777777777777-|
|-2222222222222222-5555555555555555-0000000000000000-7777777777777777-|
PM..................................................................... 
|
|Guitar 2
|-----------------------------------------------------------------------------|
|-----------------------------------------------------------------------------|
|-9---------------------------------------------------------------------------|
|-----------------------------------------------------------------------------|
|-7---------------------------------------------------------------------------|
|------------------5555555555555555-7777777777777777-101010101010101088887777-|
PM                 ...........................................................




|VERSE 2  
|Guitar 1
|---------------------------------------------------------------------|
|---------------------------------------------------------------------|
|---------------------------------------------------------------------|    
|---------------------------------------------------------------------|
|-2222222222222222-5555555555555555-0000000000000000-7777777777777777-|
|-2222222222222222-5555555555555555-0000000000000000-7777777777777777-|
PM..................................................................... 
|
|Guitar 2
|---------------------------------------------------------------------------------|
|---------------------------------------------------------------------------------|
|---------------------------------------------------------------------------------|
|---------------------------------------------------------------------------------|
|---------------------------------------------------------------------------------|
|-9999999999999999-5555555555555555-7777777777777777-1010101010101010888812121212-|
PM................................................................................




|VERSE 2 
|Guitar 1
|--------------------------------------------------|
|--------------------------------------------------|
|--------------------------------------------------|    
|--------------------------------------------------|
|--2--22--22--22--22-2----5--55--55--55--55-5------|
|--2--22--22--22--22-2----5--55--55--55--55-5------|
PM...........................................
|
|Guitar 2
|----------------------------------------------------|
|----------------------------------------------------|
|----------------------------------------------------|
|----------------------------------------------------|
|----------------------------------------------------|
|14-1414-1414-1414-1414-14-12-1212-1212-1212-1212-12-|
PM.................................................




|VERSE 2
|Guitar 1
|----------------------------------------------|
|----------------------------------------------|
|----------------------------------------------|
|----------------------------------------------|
|-0--00--00--00--00--0----7--77--77--77--------|
|-0--00--00--00--00--0----7--77--77--77--77-0--|
PM.  ..  ..  ..  ..  .    .  ..  ..  ..  .
|
|Guitar 2
|-------------------------------------------------|
|-------------------------------------------------|
|-------------------------------------------------|
|-------------------------------------------------|
|-------------------------------------------------|
|-16-1616-1616-1616-1616-16-14-1414-1414-1414-7-0-|
PM .  . .  . .  . .  . .  .  .  . .  . .  . . 




**********************************************************************************




(1:51)
|CHORUS 2
|Guitar 1
|------------------------------------------------------------------------------|
|------------------------------------------------------------------------------|
|------------------------------------------------------------------------------|
|-------------------5--5-55---------------------------------5--5-55------------|
|-2--2-22--0000-0---3--3-33----5555---4---2--2-22--0000-0---3--3-33---5555-4---|
|-2--2-22--0000-0--------------5555---4---2--2-22--0000-0-------------5555-4---|
|
|Guitar 2
|------------------------------------------------------------------------------|
|------------------------------------------------------------------------------|
|-9--9-99--7777-7-12-12-1212-141414-12-12-11-111111--9999-9--7--7-77--99997777-|
|------------------------------------------------------------------------------|
|-7--7-77--5555-5-10-10-1010-121212-10-10--9--9-9-9--7777-7--5--5-55--77775555-|
|------------------------------------------------------------------------------|




|CHORUS 2 
|Guitar 1
|------------------------------------------------------------------------------|
|------------------------------------------------------------------------------|
|------------------------------------------------------------------------------|
|-------------------5--5-55---------------------------------5--5-55------------|
|-2--2-22--0000-0---3--3-33----5555---4---2--2-22--0000-0---3--3-33---5555-4---|
|-2--2-22--0000-0--------------5555---4---2--2-22--0000-0-------------5555-4---|
|
|Guitar 2
|------------------------------------------------------------------------------|
|------------------------------------------------------------------------------|
|-9--9-99--7777-7-12-12-1212-141414-12-12-11-111111--9999-9--7--7-77--99997777-|
|------------------------------------------------------------------------------|
|-7--7-77--5555-5-10-10-1010-121212-10-10--9--9-9-9--7777-7--5--5-55--77775555-|
|------------------------------------------------------------------------------|





**********************************************************************************



(2:13)
|BRIDGE 1 
|Guitar 1
|-------------------------------|-------------------------------|
|-------------------------------|-------------------------------|
|-------------------------------|-------------------------------|
|-2-----------------------------|-2-----------------------------|
|-2-----------------------------|-2-----------------------------|
|-2-----------------------------|-2-----------------------------|
|
|Guitar 2
|-------------------------------|-------------------------------|
|-------------------------------|-------------------------------|
|-9-----------------------------|-(9)---------------------------|
|-------------------------------|-------------------------------|
|-7-----------------------------|-(7)---------------------------|
|-------------------------------|-------------------------------|




|BRIDGE 1 
|Guitar 1
|-------------------------------|-------------------------------|
|-------------------------------|-------------------------------|
|-------------------------------|-------------------------------|
|-2-----------------------------|-5-----------------------------| 2X 
|-2-----------------------------|-5-----------------------------|
|-2-----------------------------|-5-----------------------------|





**********************************************************************************




(2:30)
|BREAKDOWN 1 
|Guitar 1
|----------------------------------|-------------------------------|
|----------------------------------|-------------------------------|
|----------------------------------|-------------------------------|
|----------------------------------|-------------------------------|
|-222---222--0----555---555---0----|-222---222--0---555-555--0-0-0-|
|-222---222--0----555---555---0----|-222---222--0---555-555--0-0-0-|
PM...   ...       ...   ...          ...   ...      ... ...  . . .
|
|Guitar 2
|----------------------------------|-------------------------------|
|----------------------------------|-------------------------------|
|----------------------------------|-------------------------------|
|----------------------------55-4--|-------------------------------|
|----------------------------------|-------------------------------|
|-222---222--0----555---555--------|-222---222--0---555-555--0-0-0-|
PM...   ...       ...   ...  n,h,,   ...   ...      ... ...  . . .




|BREAKDOWN 1 
|Guitar 1
|----------------------------------|-------------------------------|
|----------------------------------|-------------------------------|
|----------------------------------|-------------------------------|
|----------------------------------|-------------------------------|
|-222---222--0----555---555---0----|-222---222--0---555-555--7\-----|
|-222---222--0----555---555---0----|-222---222--0---555-555--7\-----|
PM...   ...       ...   ...          ...   ...      ... ...  
|
|Guitar 2
|----------------------------------|-------------------------------|
|----------------------------------|-------------------------------|
|----------------------------------|-------------------------------|
|----------------------------55-4--|-------------------------------|
|----------------------------------|-------------------------7\----|
|-222---222--0----555---555--------|-222---222--0---555-555--7\----|
PM...   ...       ...   ...  n,h,,   ...   ...      ... ...  





**********************************************************************************



(2:52)
|BRIDGE 2 
|Guitar 1
|------------------------------------------|
|------------------------------------------|
|------------------------------------------|
|-------------------5--5-55----------------|
|-2--2-22--0000-0---3--3-33----5555---4\---|
|-2--2-22--0000-0--------------5555---4\---|




**********************************************************************************



(2:58)
|CHORUS 3
|Guitar 1
|--------------------------------------|
|--------------------------------------|
|--------------------------------------|
|-------------------5--5-55------------|
|-2--2-22--0000-0---3--3-33--5555---4--|
|-2--2-22--0000-0------------5555---4--|
|
|Guitar 2
|--------------------------------------|
|--------------------------------------|
|-11-111111-9999-9--7--7-77--99997777--|
|--------------------------------------|
|-9--9-9-9--7777-7--5--5-55--77775555--|
|--------------------------------------|




|CHORUS 3 
|Guitar 1
|------------------------------------------------------------------------------|
|------------------------------------------------------------------------------|
|------------------------------------------------------------------------------|
|-------------------5--5-55---------------------------------5--5-55------------|
|-2--2-22--0000-0---3--3-33----5555---4---2--2-22--0000-0---3--3-33---5555-4---|
|-2--2-22--0000-0--------------5555---4---2--2-22--0000-0-------------5555-4---|
|
|Guitar 2
|------------------------------------------------------------------------------|
|------------------------------------------------------------------------------|
|-9--9-99--7777-7-12-12-1212-141414-12-12-11-111111--9999-9--7--7-77--99997777-|
|------------------------------------------------------------------------------|
|-7--7-77--5555-5-10-10-1010-121212-10-10--9--9-9-9--7777-7--5--5-55--77775555-|
|------------------------------------------------------------------------------|




|CHORUS 3 
|Guitar 1
|----------------------------------------------------------------------------|
|----------------------------------------------------------------------------|
|----------------------------------------------------------------------------|
|-------------------5-5-5-5-----------------------------5-5-5-5--------------|
|-2-2-2-2--0-0-0-0--3-3-3-3--5-5-4-4--2-2-2-2--0-0-0-0--3-3-3-3--5-5--4-4----|
|-2-2-2-2--0-0-0-0-----------5-5-4-4--2-2-2-2--0-0-0-0-----------5-5--4-4----|
|
|Guitar 2
|------------------------------------------------------------------------------|
|------------------------------------------------------------------------------|
|-9--9-99--7777-7-12-12-1212-141414-12-12-11-111111--9999-9--7--7-77--99997777-|
|------------------------------------------------------------------------------|
|-7--7-77--5555-5-10-10-1010-121212-10-10--9--9-9-9--7777-7--5--5-55--77775555-|
|------------------------------------------------------------------------------|




|CHORUS 3 
|Guitar 1
|------------------------------------------------------------------------------|
|------------------------------------------------------------------------------|
|------------------------------------------------------------------------------|
|-------------------5--5-55---------------------------------5--5-55------------|
|-2--2-22--0000-0---3--3-33----5555---4---2--2-22--0000-0---3--3-33---5555-4---|
|-2--2-22--0000-0--------------5555---4---2--2-22--0000-0-------------5555-4---|
|
|Guitar 2
|------------------------------------------------------------------------------|
|------------------------------------------------------------------------------|
|-9--9-99--7777-7-12-12-1212-141414-12-12-11-111111--9999-9--7--7-77--99997777-|
|------------------------------------------------------------------------------|
|-7--7-77--5555-5-10-10-1010-121212-10-10--9--9-9-9--7777-7--5--5-55--77775555-|
|------------------------------------------------------------------------------|




**********************************************************************************




(3:37)
|OUTRO 
|Guitar 1
|-------------------------------|-------------------------------|
|-------------------------------|-------------------------------|
|-------------------------------|-------------------------------|
|-2-----------------------------|-(2)---------------------------|
|-2-----------------------------|-(2)---------------------------|
|-2-----------------------------|-(2)---------------------------|
|
|Guitar 2
|-------------------------------|-------------------------------|
|-------------------------------|-------------------------------|
|-9-----------------------------|-(9)---------------------------|
|-------------------------------|-------------------------------|
|-7-----------------------------|-(7)---------------------------|
|-------------------------------|-------------------------------|
|
|
|
|
|
|
|END
Suggest correction
Give kudos to tab author, rate the tab!
1 2 3 4 5
comments
print report bad tab
guest
You may want to rate the tab now too:
select rating
Wanna post a correction for this tab? Suggest correction