Oops, an error
Loading. Please wait.

Devil Inside Tab

41 views 1 this week
no commentswrite comment
1 2 3 4 5
3 more votes to show rating
add to favorites
launch autoscroll
font size
0
reset
how to read this tab
guitar tuner
×
Best way to learn
"Devil Inside"
Autoscroll
slow
fast
+/-
esc
set tempo
stop
Author
Difficulty
Tuning
  follow
advanced
B F# B E G# C#
-------------------------------------------------------------------------------
                             DEVIL INSIDE - LOSING SEPTEMBER
-------------------------------------------------------------------------------

Losing September
"Devil Inside"
ALBUM - Project Mayhem
2012 Vindicated Records
Website: www.losingseptember.com
Facebook: www.facebook.com/musicforlosers
YouTube: (Official Music Video) http://www.youtube.com/watch?v=K2gpAxLdasg
Tabbed by: RiseOfRock9



************************************

| /   slide up
| \   slide down
| h   hammer-on
| p   pull-off
| ~   vibrato
| +   harmonic
| x   Mute note
| b   Bend
| pb  Pre-bend
| br  Bend release
| pbr Pre-bend release
| brb Bend release bend

************************************

Tuning: Drop B
B-F#-B-E-G#-C#

Guitar 1 is the Rhythm guitar.
Guitar 2 is the lead guitar.


|INTRO
|Guitar 1
|---------------------|---------------------|----------------------|------------------------|
|---------------------|---------------------|----------------------|------------------------|
|---------------------|---------------------|----------------------|------------------------|
|---------------------|---------------------|----------------------|------------------------|
|-5-555-5--87-7h8p7p0-|-3-333-3--87-7h8p7p0-|-5--555-5--87-7h8p7p0-|-7-777-7--10-8-7h8p7p0--|
|---------------------|---------------------|----------------------|------------------------|
|
|Guitar 2
|---------------------|---------------------|----------------------|------------------------|
|---------------------|---------------------|----------------------|------------------------|
|---------------------|---------------------|----------------------|------------------------|
|---------------------|---------------------|----------------------|-7-777-7--10-8-7h8p7p0--|
|---------------------|---------------------|----------------------|------------------------|
|---------------------|---------------------|----------------------|------------------------|




|GUITAR 1
|---------------------|---------------------|----------------------|------------------------|
|---------------------|---------------------|----------------------|------------------------|
|---------------------|---------------------|----------------------|------------------------|
|---------------------|---------------------|----------------------|------------------------|
|-5-555-5--87-7h8p7p0-|-3-333-3--87-7h8p7p0-|-5--555-5--87-7h8p7p0-|-7-777-7--10-8-7h8p7p0--|
|---------------------|---------------------|----------------------|------------------------|
|
|
|GUITAR 2
|---------------------|---------------------|----------------------|------------------------|
|---------------------|---------------------|----------------------|------------------------|
|---------------------|---------------------|----------------------|------------------------|
|-5-555-5--87-7h8p7p0-|-3-333-3--87-7h8p7p0-|-5--555-5--87-7h8p7p0-|-7-777-7--10-8-7h8p7p0--|
|---------------------|---------------------|----------------------|------------------------|
|---------------------|---------------------|----------------------|------------------------|



|1st Solo
|GUITAR 1
|---------------------|---------------------|----------------------|------------------------|
|---------------------|---------------------|----------------------|------------------------|
|---------------------|---------------------|----------------------|------------------------|
|---------------------|---------------------|----------------------|------------------------|
|-5-555-5--87-7h8p7p0-|-3-333-3--87-7h8p7p0-|-5--555-5--87-7h8p7p0-|-7-777-7--10-8-7h8p7p0--|
|---------------------|---------------------|----------------------|------------------------|
|
|GUITAR 2
|----------------------|--------------------|-----------------------|------------------------|
|----------------------|--------------------|-----------------------|------------------------|
|------------10--------|-----------10-------|------------10---10-12-|-12s14-12-10---10h12-10-|
|/12-12-1212----121012-|/12-12-1212--121012-|/12-12-1212----12------|-------------12---------|
|----------------------|--------------------|-----------------------|------------------------|
|----------------------|--------------------|-----------------------|------------------------|


*********************************************************************************************


|VERSE 1
|GUITAR 1
|-----------------------------|-------------------------------------|
|-----------------------------|-------------------------------------|
|-----------------------------|-------------------------------------|
|-----------------------------|-------------------------------------|
|----------8-8p7-------7-7p5--|-------8-8p7-----------10-8------8-7-|
|---0-0-0--------0-0-0--------|-0-0-0-------10101010------8888------|
|P.M. . .        .  . .        .  .  .      . .  . .      ....          
|
|GUITAR
|-----------------------------|-------------------------------------|
|-----------------------------|-------------------------------------|
|-----------------------------|-------------------------------------|
|-----------------------------|-----------------------8-7-------7-5-|
|---------12-12p10---10-10p8--|----12-12p10--10101010------8888-----|
|-----------------------------|-------------------------------------|
|P.M.                                         . . . .       ....



|GUITAR 1
|----------------------------|--------------------------------------------|
|----------------------------|--------------------------------------------|
|----------------------------|--------------------------------------------|
|----------------------------|--------------------------------------------|
|---------8-8p7-------7-7p5--|--------8-8p7-------------------------------|
|---0-0-0--------0-0-0-------|--0-0-0-------10101010--8--7---8888----7--5-|
|P.M.. . .       . . .          . . .        . . . .         ....
|
|GUITAR 2
|-----------------------------|-------------------------------------------|
|-----------------------------|-------------------------------------------|
|-----------------------------|-------------------------------------------|
|-----------------------------|-------------------------8--7--------7--5--|
|---------12-12p10----10-10p8-|------12-12p10--10101010-------8888--------|
|-----------------------------|-------------------------------------------|
|P.M.                                          . . . .         ....




|GUITAR 1
|-----------------------------|-------------------------------------|
|-----------------------------|-------------------------------------|
|-----------------------------|-------------------------------------|
|-----------------------------|-------------------------------------|
|----------8-8p7-------7-7p5--|-------8-8p7-----------10-8------8-7-|
|---0-0-0--------0-0-0--------|-0-0-0-------10101010------8888------|
|P.M. . .        .  . .        .  .  .      . .  . .      ....          
|
|GUITAR 2
|-----------------------------|-------------------------------------|
|-----------------------------|-------------------------------------|
|-----------------------------|-------------------------------------|
|-----------------------------|------------------------8-7------7-5-|
|---------12-12p10---10-10p8--|----12-12p10--10101010------8888-----|
|-----------------------------|-------------------------------------|
|P.M.                                         . . . .      ....




|GUITAR 1
|----------------------------|---------------------------------------------|
|----------------------------|---------------------------------------------|
|----------------------------|---------------------------------------------|
|----------------------------|---------------------------------------------|
|---------8-8p7-------7-7p5--|--------8-8p7--------------------------------|
|---0-0-0--------0-0-0-------|--0-0-0-------10101010--8-7----8-8-8-8--7--5-|
|P.M. . .        .  . .        .  .  .      . .  . .         . . . .          
|
|GUITAR2
|-----------------------------|---------------------------------------------|
|-----------------------------|---------------------------------------------|
|-----------------------------|-----------------------15-14-----------14-12-|
|-----------------------------|--------------12121212--------10101010-------|
|--------12-12p10----13-13p12-|----15-15p13---------------------------------|
|-----------------------------|---------------------------------------------|
|P.M.                                         . . . .        . . . .


*********************************************************************************************


|CHORUS 1
|GUITAR 1
|---------------------------------|-----------------------------------|
|---------------------------------|-----------------------------------|
|---------------------------------|-----------------------------------|
|-0-0-0-0-0-0-0-0-2-2-2-2-2-2-2-2-|--3-3-3-3-3-3-3-3-5-5-5-5-7-7-8-8--|   REPEAT
|-0-0-0-0-0-0-0-0-2-2-2-2-2-2-2-2-|--3-3-3-3-3-3-3-3-5-5-5-5-7-7-8-8--|
|-0-0-0-0-0-0-0-0-2-2-2-2-2-2-2-2-|--3-3-3-3-3-3-3-3-5-5-5-5-7-7-8-8--|
|
|GUITAR 2
|---------------------------------|-----------------------------------|
|---------------------------------|-----------------------------------|
|-7-7-7-7-7-7-7-7-9-9-9-9-9-9-9-9-|-1010101010101010-1212121214141515-|
|---------------------------------|-----------------------------------|   REPEAT
|-5-5-5-5-5-5-5-5-7-7-7-7-7-7-7-7-|--8-8-8-8-8-8-8-8-1010101012121313-|
|---------------------------------|-----------------------------------|




|GUITAR 1
|---------------------------------|-----------------------------------|
|---------------------------------|-----------------------------------|
|---------------------------------|-----------------------------------|
|-0-0-0-0-0-0-0-0-2-2-2-2-2-2-2-2-|--3-3-3-3-3-3-3-3-5-5-5-5-7-7-8-8--|   
|-0-0-0-0-0-0-0-0-2-2-2-2-2-2-2-2-|--3-3-3-3-3-3-3-3-5-5-5-5-7-7-8-8--|
|-0-0-0-0-0-0-0-0-2-2-2-2-2-2-2-2-|--3-3-3-3-3-3-3-3-5-5-5-5-7-7-8-8--|
|
|
|GUITAR 2
|----------------------------------|---------------------------------|
|----------------------------------|---------------------------------|
|-1414141414141515-1212121212121414|1010101010101010-9-9-9-9-9-9-9-9-|
|----------------------------------|---------------------------------|
|-1212121212121313-1010101010101212|-8-8-8-8-8-8-8-8-7-7-7-7-7-7-7-7-|
|----------------------------------|---------------------------------|



|GUITAR 1
|---------------------------------|-----------------------------------|
|---------------------------------|-----------------------------------|
|---------------------------------|-----------------------------------|
|-0-0-0-0-0-0-0-0-2-2-2-2-2-2-2-2-|--3-3-3-3-3-3-3-3-5-5-5-5-7-7-8-8--|   
|-0-0-0-0-0-0-0-0-2-2-2-2-2-2-2-2-|--3-3-3-3-3-3-3-3-5-5-5-5-7-7-8-8--|
|-0-0-0-0-0-0-0-0-2-2-2-2-2-2-2-2-|--3-3-3-3-3-3-3-3-5-5-5-5-7-7-8-8--|
|
|
|GUITAR 2
|-----------------------------------|-----------------------------------|
|-----------------------------------|-----------------------------------|
|-1414141414141414-1515151515151515-|-1717171717171717-1919191919191919-|
|-----------------------------------|-----------------------------------|
|-1212121212121212-1313131313131313-|-1515151515151515-1717171717171717-|
|-----------------------------------|-----------------------------------|


*********************************************************************************************


VERSE 2
|GUITAR 1
|-----------------------------|-------------------------------------|
|-----------------------------|-------------------------------------|
|-----------------------------|-------------------------------------|
|-----------------------------|-------------------------------------|
|----------8-8p7-------7-7p5--|-------8-8p7-----------10-8------8-7-|
|---0-0-0--------0-0-0--------|-0-0-0-------10101010------8888------|
|P.M. . .        .  . .        .  .  .      . .  . .      ....          
|
|GUITAR 2
|-----------------------------|-------------------------------------|
|-----------------------------|-------------------------------------|
|-----------------------------|-------------------------------------|
|-----------------------------|----------------------8-7-------7-5--|
|---------12-12p10---10-10p8--|----12-12p10-10101010-------8888-----|
|-----------------------------|-------------------------------------|
|P.M.                                         . . . .      ....



|GUITAR 1
|----------------------------|--------------------------------------------|
|----------------------------|--------------------------------------------|
|----------------------------|--------------------------------------------|
|----------------------------|--------------------------------------------|
|---------8-8p7-------7-7p5--|--------8-8p7-------------------------------|
|---0-0-0--------0-0-0-------|--0-0-0-------10101010--8--7---8888----7--5-|
|P.M.. . .       . . .          . . .        . . . .         ....
|
|GUITAR 2
|-----------------------------|-------------------------------------------|
|-----------------------------|-------------------------------------------|
|-----------------------------|-------------------------------------------|
|-----------------------------|------------------------8--7---------7--5--|
|---------12-12p10----10-10p8-|------12-12p10-10101010--------8888--------|
|-----------------------------|-------------------------------------------|
|P.M.                                         . . . .         ....




|GUITAR 1
|-----------------------------|-------------------------------------|
|-----------------------------|-------------------------------------|
|-----------------------------|-------------------------------------|
|-----------------------------|-------------------------------------|
|----------8-8p7-------7-7p5--|-------8-8p7-----------10-8------8-7-|
|---0-0-0--------0-0-0--------|-0-0-0-------10101010-------8888-----|
|P.M. . .        .  . .        .  .  .      . .  . .       ....          
|
|GUITAR 2
|-----------------------------|-------------------------------------|
|-----------------------------|-------------------------------------|
|-----------------------------|-------------------------------------|
|-----------------------------|-----------------------8-7-------7-5-|
|---------12-12p10---10-10p8--|----12-12p10--10101010------8888-----|
|-----------------------------|-------------------------------------|
|P.M.                                        . . . .       ....




|GUITAR 1
|----------------------------|---------------------------------------------|
|----------------------------|---------------------------------------------|
|----------------------------|---------------------------------------------|
|----------------------------|---------------------------------------------|
|---------8-8p7-------7-7p5--|--------8-8p7--------------------------------|
|---0-0-0--------0-0-0-------|--0-0-0-------10101010--8-7----8888----7--5--|
|P.M. . .        .  . .        .  .  .      . .  . .         ....          
|
|GUITAR 2
|-----------------------------|--------------------------------------------|
|-----------------------------|--------------------------------------------|
|-----------------------------|-----------------------15-14----------14-12-|
|-----------------------------|--------------12121212-------10101010-------|
|--------12-12p10----13-13p12-|----15-15p13--------------------------------|
|-----------------------------|--------------------------------------------|
|P.M.                                         . . . .        . . . .


*********************************************************************************************


|CHORUS 2
|GUITAR 1
|---------------------------------|-----------------------------------|
|---------------------------------|-----------------------------------|
|---------------------------------|-----------------------------------|
|-0-0-0-0-0-0-0-0-2-2-2-2-2-2-2-2-|--3-3-3-3-3-3-3-3-5-5-5-5-7-7-8-8--|   REPEAT
|-0-0-0-0-0-0-0-0-2-2-2-2-2-2-2-2-|--3-3-3-3-3-3-3-3-5-5-5-5-7-7-8-8--|
|-0-0-0-0-0-0-0-0-2-2-2-2-2-2-2-2-|--3-3-3-3-3-3-3-3-5-5-5-5-7-7-8-8--|
|
|GUITAR 2
|---------------------------------|-----------------------------------|
|---------------------------------|-----------------------------------|
|-7-7-7-7-7-7-7-7-9-9-9-9-9-9-9-9-|-1010101010101010-1212121214141515-|
|---------------------------------|-----------------------------------|   REPEAT
|-5-5-5-5-5-5-5-5-7-7-7-7-7-7-7-7-|--8-8-8-8-8-8-8-8-1010101012121313-|
|---------------------------------|-----------------------------------|




|GUITAR 1
|---------------------------------|----------------------------------|
|---------------------------------|----------------------------------|
|---------------------------------|----------------------------------|
|-0-0-0-0-0-0-0-0-2-2-2-2-2-2-2-2-|--3-3-3-3-3-3-3-3-5-5-5-5-7-7-8-8-|   
|-0-0-0-0-0-0-0-0-2-2-2-2-2-2-2-2-|--3-3-3-3-3-3-3-3-5-5-5-5-7-7-8-8-|
|-0-0-0-0-0-0-0-0-2-2-2-2-2-2-2-2-|--3-3-3-3-3-3-3-3-5-5-5-5-7-7-8-8-|
|
|
|GUITAR 2
|----------------------------------|---------------------------------|
|----------------------------------|---------------------------------|
|-1414141414141515-1212121212121414|1010101010101010-9-9-9-9-9-9-9-9-|
|----------------------------------|---------------------------------|
|-1212121212121313-1010101010101212|-8-8-8-8-8-8-8-8-7-7-7-7-7-7-7-7-|
|----------------------------------|---------------------------------|




|GUITAR 1
|---------------------------------|-----------------------------------|
|---------------------------------|-----------------------------------|
|---------------------------------|-----------------------------------|
|-0-0-0-0-0-0-0-0-2-2-2-2-2-2-2-2-|--3-3-3-3-3-3-3-3-5-5-5-5-7-7-8-8--|   
|-0-0-0-0-0-0-0-0-2-2-2-2-2-2-2-2-|--3-3-3-3-3-3-3-3-5-5-5-5-7-7-8-8--|
|-0-0-0-0-0-0-0-0-2-2-2-2-2-2-2-2-|--3-3-3-3-3-3-3-3-5-5-5-5-7-7-8-8--|
|
|
|GUITAR 2
|-----------------------------------|-----------------------------------|
|-----------------------------------|-----------------------------------|
|-1414141414141414-1515151515151515-|-1717171717171717-1919191921212121-|
|-----------------------------------|-----------------------------------|
|-1212121212121212-1313131313131313-|-1515151515151515-1717171719191919-|
|-----------------------------------|-----------------------------------|




*********************************************************************************************



|PRE-SOLO
|GUITAR 1
|-----------------------------------|
|-----------------------------------|
|-----------------------------------| 
|--0------------(0)-----------------|
|--0------------(0)-----------------|
|--0------------(0)-----------------|
|
|
|GUITAR 2
|-----------------------------------|
|-----------------------------------| 
|--19-----------(19)----------------|
|-----------------------------------|
|--17-----------(17)----------------|
|-----------------------------------|




|GUITAR 1 (2nd SOLO)
|-------------------------------------|----------------------------------------------------------|
|-------------------------------------|----------------------------------------------------------|
|-------------------------------------|----------------------------------------------------------|
|-------------------------------------|----------------------------------------------------------|
|-------------------------------------|----------------------------------------------------------|
|--00000000-----00000000-----00000----|-------00000000-------------00000000-------------00000----|
|P.M......      ........     .....            ........             ........             .....
|
| 
|GUITAR 2 (2nd SOLO)
|-------------------------------------|-------------------------------------------------------18-|
|-------------------------------------|----------------------------------------15---18171517-----|
|-------------------------------------|------------------12---1514121412141214-------------------|
|----------5-----------8-----------12-|--1514121412141214----------------------------------------|
|-87575757---108787878---13121012-----|----------------------------------------------------------|
|-------------------------------------|----------------------------------------------------------| 
|P.M........   .........   .......       ...............      ...............      ........




|GUITAR 1 
|---------------------------------------------------|
|---------------------------------------------------|
|---------------------------------------------------|
|---------------------------------------------------|
|---------------------------------------------------|
|-----00000000----------00000000---------00000------|
|P.M.  ......           ........         .....         
|
|
|GUITAR 2
|---------------------------------------------------|
|2017151715171517-2017151715171517-20171517---------|
|-------------------------------------------17151415|
|---------------------------------------------------|
|---------------------------------------------------|
|---------------------------------------------------|




|GUITAR 1
|----------------------------------------------------| 
|----------------------------------------------------| 
|----------------------------------------------------| 
|----------------------------------------------------|  
|----------------------------------------------------| 
|-------00000000----------00000000----------00000----| 
|P.M.  ......          ........         .....           
|
|
|GUITAR 2
|----------------------------------------------------|
|2017151715171517-2017151715171517-20171517----------|
|-------------------------------------------17151415-|
|----------------------------------------------------|
|----------------------------------------------------|
|----------------------------------------------------|



|GUITAR 1 
|---------------------------------------------------------------| 
|---------------------------------------------------------------| 
|---------------------------------------------------------------| 
|---------------------------------------------------------------|  
|---------------------------------------------------------------| 
|--------00000000----------------00000000----------00000--------| 
|Let Ring
|
|GUITAR 2
|--2017151715171517---------------------------------------------|
|-------------------2017151715171517------------------20171517--|
|------------------------------------1715141514151415-----------|
|---------------------------------------------------------------|
|---------------------------------------------------------------|
|---------------------------------------------------------------|



|GUITAR 1 
|---------------------------------------------------------------| 
|---------------------------------------------------------------| 
|---------------------------------------------------------------| 
|---------------------------------------------------------------|  
|---------------------------------------------------------------| 
|--------00000000----------------00000000----------00000--------| 
|
|
|GUITAR 2
|--2017151715171517---------------------------------------------|
|-------------------2017151715171517----------------------------|
|-------------------------------------1715141517151415----------|
|------------------------------------------------------17151415-|
|---------------------------------------------------------------|
|---------------------------------------------------------------|




|GUITAR 1 
|--------------------------------------|----------------------------------------------------------|
|--------------------------------------|----------------------------------------------------------|
|--------------------------------------|----------------------------------------------------------|
|--------------------------------------|----------------------------------------------------------|
|--------------------------------------|----------------------------------------------------------|
|--00000000-----00000000-----00000-----|-------00000000-------------00000000-------------00000----|
|P.M. .... .... ... .... ..... ...
|
|
|GUITAR 2  
|--------------------------------------|-------------------------------------------------------18-|
|--------------------------------------|----------------------------------------15---18171517-----|
|--------------------------------------|------------------12---1514121412141214-------------------|
|-----------5-----------8-----------12-|--1514121412141214----------------------------------------|
|--87575757---108787878---13121012-----|----------------------------------------------------------|
|--------------------------------------|----------------------------------------------------------|
|P.M. .....    .......     ........        ..............       ..............        ......
   



*********************************************************************************************



BRIDGE   (Live: Guitars harmonize one time through before vocals come in)
|HARMONY GUITAR
|---13p10-----------10-13p10-----------10--| 12p8-------------8-12p8-------------8----|
|-----------11----11-----------11----11----|-------10------10---------10------10------|
|--------------12-----------------12-------|-----------9-------------------9----------|
|------------------------------------------|------------------------------------------|
|------------------------------------------|------------------------------------------|
|------------------------------------------|------------------------------------------|
|
|GUITAR 2
|---17p13-----------13-17p13-----------13--| 15p12-----------12-15p12-------------12--|
|-----------15----15-----------15----15----|-------13-----13-----------13-----13------|
|--------------14-----------------14-------|-----------14------------------14---------|
|------------------------------------------|------------------------------------------|
|------------------------------------------|------------------------------------------|
|------------------------------------------|------------------------------------------|



|HARMONY GUITAR
|---10p6-------------8-12p8-------------8--|--8p5--------6-10---10s12p8-------10-12-12s-|
|-----------9-----9-----------9-------9----|------6----8-----------------10-11----------|
|--------------8------------------8--------|--------------------------------------------|
|------------------------------------------|--------------------------------------------|
|------------------------------------------|--------------------------------------------|
|------------------------------------------|--------------------------------------------|
|
|GUITAR 2
|---13p10------------10-13p10----------10--|-12p8-------10-13--13s15p12------13-15--15s-|
|-----------11----11-----------11----11----|-----10---11----------------13-15-----------|
|--------------12-----------------12-------|--------------------------------------------|  
|------------------------------------------|--------------------------------------------|   
|------------------------------------------|--------------------------------------------|
|------------------------------------------|--------------------------------------------| 




|GUITAR 1 (Comes in when when vocals come in.)
|--------------------------------------------|------------------------------------------|
|--------------------------------------------|------------------------------------------|
|--------------------------------------------|------------------------------------------|
|--------------------------------------------|------------------------------------------|
|--------------------------------------------|------------------------------------------|
|---0--0--0--0--2--0--2h3-2--2--2--2--3-2-3h5|-3--3--3--3--5--3--5h7-5--5--5--5--7--8---|
|P.M. .   .  .  .  .      .  .  .  .  .        .  .  .  .  .  .      .   .  .  .
|
|GUITAR 2
|---17p13-------------13-17p13-----------13--|-15p12-----------12-15p12-------------12--|
|-----------15-----15-----------15----15-----|-------13-----13-----------13-----13------|
|---------------14-----------------14--------|-----------14------------------14---------|
|--------------------------------------------|------------------------------------------|
|--------------------------------------------|------------------------------------------|
|--------------------------------------------|------------------------------------------|



|GUITAR 1
|--------------------------------------------|-----------------------------------------|
|--------------------------------------------|-----------------------------------------|
|--------------------------------------------|-----------------------------------------|
|--------------------------------------------|-----------------------------------------|
|--------------------------------------------|-----------------------------------------|
|--0--0--0--0--2--0--2h3-2--2--2--2--3-2-3h5-|-3--3--3--3--5--3--5h7-5--5--5--5--7--8--|
|P.M.. .   .  .  .  .      .  .  .  .  .        .  .  .  .  .  .      .   .  .  .
|
|GUITAR 2
|---13p10-----------10-13p10------------10---|-12p8------------------------------------|
|----------11----11-----------11-----11------|------10----8s6--------------------------|
|--------------12-----------------12---------|----------------7-----9h10h9/7s5---------|
|--------------------------------------------|-----------------------------------7-----|  
|--------------------------------------------|-----------------------------------------| 
|--------------------------------------------|-----------------------------------------|
|
|
|
|CHORUS 3
|
|OUTRO SOLO (same as beginning of 2nd solo)
|
|
|
|
|END




Suggest correction
Give kudos to tab author, rate the tab!
1 2 3 4 5
comments
print report bad tab
guest
You may want to rate the tab now too:
select rating
Wanna post a correction for this tab? Suggest correction